Guitar Tabs, Chords and Lyrics


Scared Shiftless   Sandwich



Sandwich - Scared Shitless

tabbed by joshua flores

-------
Intro:
-------

guitar 1:

			intro end

e----------2-----------|-5-|
B-5-5-2-5--------------|---|
G------------4-4-4-4/2-|---|
D----------------------|---|
A--(do 3x)-------------|---|
E----------------------|---|


guitar 2: (probably a mixture of the three c.p.'s)

   D        A		 G                  D	     A		  G
e----------------------|----         e----------------------|----|
B----------------------|----         B----------------------|----|
G--9-9-9-9-------------|----    or   G----------------------|--|    or (just use power chords D5,A5,G5)
D--7-7-7-7--9-9-9-9----|-7--         D--4-4-4-4-------------|----|
A--5-5-5-5--7-7-7-7----|-5--         A--5-5-5-5--4-4-4-4----|-5--|
E--0-0-0-0--5-5-5-5----|-3--         E-----------5-5-5-5----|-3--|

------
Verse: (do guitar 2 rif)
------

----------
prechorus:
----------

guitar 1:

e---12-12-12--------------|
B------------12-12-12-12--|
G-------------------------|  (3x) then guitar 2 plays:
D-------------------------|
A-------------------------|
E-------------------------|

guitar 2:
							  B5-C5
e-------------------------                e-----------------------------|
B-------------------------                B-----------------------------|
G-------------------------  (3x) then guitar 2 plays:    G--------------|
D-------------------------                D--4-5------------------------|
A--2-2-------5-5----------                A--2-3------------------------|
E--0-0-------3-3----------                E-----------------------------|


-------------
instrumental:
-------------

e-----------------------------------------|
B-----------------------------------------|
G---------------------------------------9-|
D---------9----------9-------9------7-----|
A-----7----------7--------------3\5---5---|


Important: The song above is NOT stored on the Chordie server. The original song is hosted at www.guitaretab.com. Chordie works as a search engine and provides on-the-fly formatting. Chordie does not index songs against artists/composers will. To remove this song please click here.

This song is displayed as text-only. Transposing and tuning is only available for chordpro-songs.

Login - add to songbook

Rating click stars to rate

Layout
Accuracy

SHARE PAGE  




You need to log in to post comments