Chordie logo

PUT YOUR LIGHTS ON     Santana


style="COLOR: #000000; FONT-SIZE: 11px;">t. See http://www.olga.net/faq/ for more information.                     #



song: put your lights on

artist: santana and everlast

album: supernatural

transcribed by jordan lockert jordanlockert@yahoo.com

Acoustic Guitar
Intro
  Am              C                G              F        E
|-0---0-0--0-0----0---0-0-0-0-0--------3-0---0----1-1-1-1--0--
|-1---1-1--0-1----1---3-3-1-0-1--------0-0-3-3----1-1-1-1--0--
|-2---2-2--2-2----0---0-0-0-0-0----0---0-0-0------2-2-2-2--1--
|-2---2-2--2-2----2---2-2-2-2-2----0--------------3-3-3-3--2--
|-0---0-0--0-0----3---3-3-3-3-3----2--------------3-3-3-3--2--
|----------------------------------3--------------1-1-1-1--0--

Ok, you don't have to play the "G" part exactly as shown. I'm
just trying to emphasize which strings to play.

Lead Guitar
Intro
-|--------------------------------------------------------|
-|-13p12-10-------------8--------8------------------------|
-|----------------9-7-9------------/9-7--------7h9--------|
-|-------------------------------------------------10-10--|
-|--------------------------------------------------------|
-|--------------------------------------------------------|

Hey now...
put your lights on
-|--------------|
-|-8------------|
-|---9-7---7h9--|
-|-------9------|
-|--------------|
-|--------------|

Hey now
-|-----------|
-|-------8-8-|
-|-9-7-9-----|
-|-----------|
-|-----------|
-|-----------|

...
-|-8p7-----------|
-|-----8---8h10--|
-|-------9-------|
-|---------------|
-|---------------|
-|---------------|

put ...
-|---------------------------------------|
-|---------------------------------------|
-|-/7---5-7---5-7---5----------------5---|
-|--------------------7(5)-------5-7---7-|
-|-----------------------(7)(5)----------|
-|----------------------------(8)--------|

put ..
Hey now
all ...
-|-----------------|
-|-8-6---6---------|
-|-----9---/9-/9-7-|
-|-----------------|
-|-----------------|
-|-----------------|


put your lights on
-|-------------------------------------------|
-|-------------------------------------------|
-|-9-----------------------------------12h14-|
-|---10------------9-----10-----12-----------|
-|------12-/12-------------------------------|
-|-------------------------------------------|

put your lights on
Hey now
-|-----------|
-|-------8-8-|
-|-9-7-9-----|
-|-----------|
-|-----------|
-|-----------|

all ...
-|-8p7-----------|
-|-----8---8h10--|
-|-------9-------|
-|---------------|
-|---------------|
-|---------------|

leave your lights on
-|-------------------|
-|-------------------|
-|-----12-12-12--h14-|
-|-/14---------------|
-|-------------------|
-|-------------------|

Better ..
Cause ..
-|------------------------|
-|------------------------|
-|-14--------------12-----|
-|--------------------14--|
-|------------------------|
-|------------------------|

livin ..
-|--------------------------------|
-|-10-----------------------------|
-|----12-9----------------9-------|
-|---------12-12-10-12b14---10----|
-|-----------------------------12-|
-|--------------------------------|

Whispering ..
-|------------------------|
-|------------------------|
-|------------------------|
-|---------------7-10-7-7-|
-|-/7-7-7-7-7-10----------|
-|------------------------|

Theres ..
-|-----------------------------------------------------|
-|-10--------------------------------------------------|
-|----12-9---------------------------------------------|
-|---------12-10-12-12p10---10-14p10------10h12p10-----|
-|-----------------------12---------12------------12---|
-|--------------------------------------------------12-|

She say ...
-|-------------------------------------|
-|-------------------------------------|
-|-/7---/7---/7-5-7---7-5-------5h7p5--|
-|------------------------7----------7-|
-|-------------------------------------|
-|-------------------------------------|

Theres ...
-|------8---------------|
-|-8-10---10-10---10p8--|
-|--------------------9-|
-|----------------------|
-|----------------------|
-|----------------------|

living ...
-|-----------------------|
-|-----------------------|
-|-7b9-----9-r-r-r-r-7*--|
-|-----------------------|
-|-----------------------|
-|-----------------------|
*gradually release while picking

Still ...
-|-------------------------------|
-|-------------------------------|
-|-------------------------5-----|
-|---------------------5-7---7-7-|
-|-/7--/7--/7--7-7-7-7-----------|
-|-------------------------------|

So let ...
-|-------15-|
-|-15b17----|
-|----------|
-|----------|
-|----------|
-|----------|

deep ...
-|----------------12---------------|
-|-17r15-13-15b17----13------------|
-|----------------------14----12---|
-|------------------------------14-|
-|---------------------------------|
-|---------------------------------|

God ...
-|-------------------15b17-15b17-15b17-|
-|-15-15-15-17-17-17-------------------|
-|-------------------------------------|
-|-------------------------------------|
-|-------------------------------------|
-|-------------------------------------|

Don't ..
-|-C-------C#------G-------F--------E---|
-|--------------------------------------|
-|-5-5-----6-6--------------------------|
-|-5-5-----6-6-----5-5-----3-3-3-3--2-2-|
-|-3-3-----4-4-----5-5-----3-3-3-3--2-2-|
-|(rythem guitar)--3-3-----1-1-1-1--0-0-|

solo
-|-------------------------------------------------|
-|----13 -----14-----------------------------------|
-|-----------------------9h10h12-9h10p9--9h10p9--9-|
-|---------------------------------------------12--|
-|-------------------------------------------------|
-|-------------------------------------------------|


-|------------------------------------------------------
-|----13wawa--14wawawa-----5-6-8-6--5----5--------------
-|-----------------------7------------7-----7p5-7b9r7-5-
-|------------------------------------------------------
-|------------------------------------------------------
-|------------------------------------------------------


----------------------------------------------------
---------------------------------------------5---5b-
-7-5-7-5-------------------------5-7-7-5-7b9---7----
---------7p5-----------------5-7--------------------
------------7p5---------7-10------------------------
---------------8---8-10-----------------------------


----------------------------------17p15-----17p15---------
-10wah---10wah---10wah---10wa10wa------17p15-----17p15----
----------------------------------********************----
----------------------------------------------------------
----------------------------------------------------------
----------------------------------------------------------
***** mess around with these notes. It's that part that's
played really scratchy, with distortion and wah*****

------12-----12-12-13-15-13--12----------|

-15b17--15b17-------------------15b17~~~-|
-----------------------------------------|
-----------------------------------------|
-----------------------------------------|
-----------------------------------------|end solo

Hey now Hey now Hey now Hey now Hey now
-|--------------------------------------|
-|-8-6---6------------------------------|
-|-----9---/9-/9-7------/9-7------12h14-|
-|---------------------------10---------|
-|--------------------------------------|
-|--------------------------------------|


-|-----------|
-|-------8-8-|
-|-9-7-9-----|
-|-----------|
-|-----------|
-|-----------|

Woh oh
Hey Now
-|---------------------------------
-|-13-------13-12---13-12----------
-|-------12---------------12-12h14-
-|---------------------------------
-|---------------------------------
-|---------------------------------


Hey now Hey now Hey now Hey now
---------------------------------|
---------------------------------|
-------------------12------------|
-12----12--12h14--------12----12-|
----15---------------------15----|
---------------------------------|

Hey now
-|------8---------------|
-|-8-10---10-8h10----8--|
-|--------------------9-|
-|----------------------|
-|----------------------|
-|----------------------|

all ...
-|---------------------|
-|-8-------------------|
-|---7h9p7----7h9p7--7-|
-|---------10------10--|
-|---------------------|
-|---------------------|

put your lights on
-|-----------|
-|-----------|
-|-----------|
-|-----10----|
-|-/12----12-|
-|-----------|

put your lights on
-|--------------------------|
-|-10-----------------------|
-|----9-------------9-------|
-|------12-10-12b14---10----|
-|-----------------------12-|
-|--------------------------|

Hey now
-|------|
-|-8-10-|
-|------|
-|------|
-|------|
-|------|

all ...
-|--/8-8-8-8p7-----|
-|-------------8---|
-|---------------9-|
-|-----------------|
-|-----------------|
-|-----------------|

....
-|--------------------------|
-|----8-10-/10-10-/10-10-10-|
-|-/9-----------------------|
-|--------------------------|
-|--------------------------|
-|--------------------------|



Better ....
-|-10-12-----12-12-/12-12-/12-12-10-
-|----------------------------------
-|----------------------------------
-|----------------------------------
-|----------------------------------
-|----------------------------------

livin ...
--12-10-------------------------------------|
--------12-9--------------------------------|
-------------9---------------------------12-|
---------------12p10p9-------------12-14----|
-----------------------12p10---/14----------|
----------------------------12--------------|

Whispering ....
-|------------------------------------------------
-|-15-12-15-12-15-12-15-12-15-12-15-12--15b17-----
-|---p--h--p--h--p--h--p--h--p -h--p--------------
-|------------------------------------------------
-|------------------------------------------------
-|------------------------------------------------


-15-12-15-12-15-12-15-12-15b17--15b17----------12---|
---p--h--p--h--p--h--p---------------------------15-|
----------------------------------------------------|
----------------------------------------------------|
----------------------------------------------------|
----------------------------------------------------|

There an angel ...
-|-12--10---------------------------|
-|---------13-12-13-12-13-10--------|
-|-----------------------------12p9-|
-|----------------------------------|
-|----------------------------------|
-|----------------------------------|

She ...
-|---------------------------------------------|
-|---------------------------------------------|
-|-----12-12-----12-12----14-12----------------|
-|-/14-------/14-------14-------14----12-------|
-|---------------------------------15----15-12-|
-|---------------------------------------------|

  la       la la ha    hey la la             ya gotta
-|------------------------------------------
-|---------------8--8-----------------------
-|-/9-------7-9-------------------/9-7------
-|-------------------------------------10---
-|------------------------------------------
-|------------------------------------------

shine like a star
-------------------------------------------|
-----------------------------8-8---8-10-10-|
----9-7----7--9-----------/9-----9---------|
--------10-----10p7---10-------------------|
-------------------------------------------|
-------------------------------------------|

   la             la la  ha          hey la la          ya gotta
-|-12-------------10-12--15 ----12----------------------------
-|--------------------------------15-------15b17--15b17-15b17-
-|------------------------------------------------------------
-|------------------------------------------------------------
-|------------------------------------------------------------
-|------------------------------------------------------------

 shine like a star                      then fade away
-12-15-15p12--12---12-------------------------------------|
------------15--------13------13-15-17--------------------|
-------------------------14-------------12-12-12-12h14-14-|
----------------------------------------------------------|
----------------------------------------------------------|


Important: The song above is NOT stored on the Chordie server. The original song is hosted at www.guitaretab.com. Chordie works as a search engine and provides on-the-fly formatting. Chordie does not index songs against artists/composers will. To remove this song please click here.

This song is displayed as text-only. Transposing and tuning is only available for chordpro-songs.

Rating click stars to rate

Layout
Accuracy

SHARE PAGE  

You need to log in to post comments