Guitar Tabs, Chords and Lyrics


America   Santana



Hello everybody! This is the Tab to "America" from Santana & P.O.D. from the new Album Shaman.
Tune down 1 Step
Intro:
Play 2 times
D-----------------------------------------------------------|
A-------0---0----2-----2--------------0---------------------|
F-----4---4--------4-----4----------4---4------------------4|
C---4----------------4-----4------4-------4------4-------4--|
G-2-----------0--------------0--2------------------2---2----|
D--------------------------------------------3-------0------|
Verse:
Repeat this Riff
D-----------------------------------------------------|
A-----------------------------------------------------|
F-----------------------------------------------------|
C--9------9-9---7--------7-7---2------2-2---5------5-5|
G--9------9-9---7--------7-7---2------2-2---5------5-5|
D--7------7-7---5--------5-5---0------0-0---3------3-3|



Important: The song above is NOT stored on the Chordie server. The original song is hosted at www.guitaretab.com. Chordie works as a search engine and provides on-the-fly formatting. Chordie does not index songs against artists'/composers' will. To remove this song please click here.

This song is displayed as text-only. Transposing and tuning is only available for chordpro-songs.

Login - add to songbook

Rating click stars to rate

Layout
Accuracy

SHARE PAGE  




You need to log in to post comments