"yes"; ?> Im A Lady by Santogold - guitar chords, guitar tabs and lyrics - chordie

Im A Lady

Santogold

-----Intro Bass----

G|-----------------------------------------|
D|-----------------------------------------|
A|-----------------------------------------|
E|-0-0-0-7-9-9-9-7-0-0-0-4-5-5-5-4---------|
----VERSE----

 EC#mG#mA
e|---------|------------------------------------|
B|---------|--------0-------4-------4-------5---|
G|---------|--------1-X-X-X-6-------4-------6---|
D|---------|--X-X-X-2-X-X-X-6-X-X-X-6-X-X-X-7---|
A|---------|--X-X-X---X-X-X---X-X-X---X-X-X-----|
E|-\to end-|--X-X-X-----------X-X-X---X-X-X-----|


Now won't you run and tell your boyfriend
 EC#mG#mA
Tell him don't hold his breath for me      
I've got some money I was saving
Got some hearts that I'll be breaking
Know someday they'll make a martyr out of me
I know someday they'll make a martyr out of me

She's so fine

---CHORUS----

(Strum)
 EC#m
   e|------------0--------------0-|------------4-------------4-|
   B|------------0--------------0-|------------5-------------5-|
   G|------------1--------------1-|--6--6--6---6---6--6--6---6-|
   D|--2--2--2---2----2--2--2---2-|--6--6--6---6---6--6--6---6-|
   A|--2--2--2---2----2--2--2---2-|--4--4--4---4---4--4--4---4-|
   E|--0--0--0---0----0--0--0---0-|----------------------------|


And I like sometimes to wave it high Up where everyone can see

   e|------------4--------------4-|------------5-------------5-|
   B|------------4--------------4-|------------5-------------5-|
   G|------------4--------------4-|------------6-------------6-|
   D|--6--6--6---6----6--6--6---6-|--7--7--7---7---7--7--7---7-|
   A|--6--6--6---6----6--6--6---6-|--7--7--7---7---7--7--7---7-|
   E|--4--4--4---4----4--4--4---4-|--5--5--5---5---5--5--5---5-|


I'm a lady Got my mind made up, Got my mind made up

I know I spend magic reel it out
Try to hold a light to me
I'm a lady
Got my mind made up
Got my mind made up

---VERSE-----


I like to watch the way the wind blows
What does it know that I don't yet
Ooh, oh, look so pretty now
You're just so sweet
Let's see how far you can get
See just how far you can get

She's so fine

---CHORUS----


And I like sometimes to wave it high
Up where everyone can see
I'm a lady
Got my mind made up
Got my mind made up

I know I spend magic reel it out
Try to hold a light to me
I'm a lady
Got my mind made up
Got my mind made up

----INTERLUDE---

Dreams are gone
And the dreams are gone
No one said, no
No one said
Make something with what's in your head
And the dreams are gone
And the dreams are gone

---CHORUS----


(strum straight after 2nd time)

| / slide up
| \ slide down
| h hammer-on
| p pull-off
| ~ vibrato
| + harmonic
| x Mute note


A C#m E G#m
variations - click chord images
Transpose chords:
Tuning:
Cool service:
View: Size:
A  A  A
Rating:
Layout:
  • Currently 2.4/5 Stars.
  • 1
  • 2
  • 3
  • 4
  • 5
 
Accuracy:
  • Currently 3.3/5 Stars.
  • 1
  • 2
  • 3
  • 4
  • 5
 
click stars to rate
Chordie recommends:
Learn how to play guitar at JamPlay.com
Songbook:
Login to add this song to your songbook
Support the artist
Preview/buy this song
MSN Music
Why this non-profit ad?

 
login to add comments/video/corrections