Guitar Tabs, Chords and Lyrics


Keep Secrets   Saosin



Here's a quick tab minus the verse.
Just wanted to throw this out there for the beginners who need a push in the right

direction.
Tuning is down a whole step.

Rythm:
|------------------------------------------------------------|
|------------------------------------------------------------|
|------------------------------------------------------------|
|------------------------5-5-5-5-----------------------------|
|-7--7-7-7-7-7-7-7-7-7-7-3-3-3-3-5-5-5-5--3-3-3-3-3-3-3-3----|
|-5--5-5-5-5-5-5-5-5-5-5---------3-3-3-3--1-1-1-1-1-1-1-1----|

Lead:
|----8---8----8---8---10--10--10--10---|
|-10--10---10--10--10---10--10--10-----|
|--------------------------------------|
|--------------------------------------|
|--------------------------------------|
|--------------------------------------|

---8---8--8--8--9--9--9--9------12--12--12--12--12--12--12--12--|
-8---8--8--8--8--8--8--8---8/13---13--13--13--13--13--13--13----|
----------------------------------------------------------------|
----------------------------------------------------------------|
----------------------------------------------------------------|
----------------------------------------------------------------|

Both Guitars:
|---------------------------|
|-5--5-5-5-5-5/8--8--8--8---|
|-9--9-9-9-9-9/12-12-12-12--|
|---------------------------|
|---------------------------|
|---------------------------|

Bridge Riff (both guitars)
|--------8--8--8--8---------------|
|-----12--12-12-12----------------|
|-------------------------9-------|
|---------------------------9-----|
|-7-7---------------5-7-7-----7~--|
|-5-5---------------3-5-5---------|

|------------10---10---10---10-------------------|
|---------12---12---12---12----------------------|
|------------------------------------------------|
|-------------------------------------10---------|
|-x-5-3-3----------------------x-3-3-----10------|
|-x-3-1-1----------------------x-1-1--------8~---|

Going back into the chorus:
|-----------------------|
|-5--5-5-5/8--8--8--8---|
|-9--9-9-9/12-12-12-12--|
|-----------------------|
|-----------------------|
|-----------------------|



Important: The song above is NOT stored on the Chordie server. The original song is hosted at www.guitaretab.com. Chordie works as a search engine and provides on-the-fly formatting. Chordie does not index songs against artists/composers will. To remove this song please click here.

This song is displayed as text-only. Transposing and tuning is only available for chordpro-songs.

Login - add to songbook

Rating click stars to rate

Layout
Accuracy

SHARE PAGE  




You need to log in to post comments