Chordie logo


Penelope   Saosin



ok, tuning is in C (CGCFAD)

Intro
D]---------------------0---------------------------------|
A]--------------3---------3-----3------------------------|
F]----------0-------0--------0---------------------------|
C]----0h2------------------------------------------------|
G]-------------------------------------------------------|
C]-------------------------------------------------------|

D]---------------------0---------------------------------|
A]-------------3----------3-----3--------3---0----3------|
F]----------0------0---------0--------0---0----0----0----|
C]---0h2-------------------------------------------------|
G]-------------------------------------------------------|
C]-------------------------------------------------------|

Verse
D]---------------------0------0--------0--------0--------|
A]---------------3-------3-------3--------3--------3-----|
F]----------0-------0------0--------0--------0--------0--| X3
C]---0h2-------------------------------------------------|
G]-------------------------------------------------------|
C]-------------------------------------------------------|

D]--------------0---0---0---0----------------------------|
A]---------------3---3---3---3-----3----0---3------------|
F]----------3-----0---0---0---0-0----0----0---0----------|
C]--------0---0------------------------------------------|
G]---0h2-------------------------------------------------|
C]-------------------------------------------------------|

D]--------0---0---0---0---0---0---0---0---0---0----------|
A]-----------3---3---3---3---3---3---3---3---3---3-------|
F]-------------------------------------------------------|
C]---0h2--------2---2---2---2---2---2---2---2---2---2----|
G]-------------------------------------------------------|
C]-------------------------------------------------------|
While guitar 1 plays the 0 3 guitar 2 plays this figure at the same time
D]5--3--5--3--5--3--5--3--5--3--7--2--7--2--7--2--7--2--7-|
A]--------------------------------------------------------|
F]--------------------------------------------------------|
C]--------------------------------------------------------|
G]--------------------------------------------------------|
C]--------------------------------------------------------|
and the rest oof the song goes like this
D]--------------0---0---0---0----------------------------|
A]---------------3---3---3---3-----3----0---3------------|
F]----------3-----0---0---0---0-0----0----0---0----------|
C]--------0---0------------------------------------------|
G]---0h2-------------------------------------------------|
C]-------------------------------------------------------|

2nd guitar and or violin play the bass line but it starts the 2nd time tru the first verse
D]---------------------|
A]---------------------|
F]---------------------|
C]---------------------|
G]---7---5---3---------|
C]---------------------|



Important: The song above is NOT stored on the Chordie server. The original song is hosted at www.guitaretab.com. Chordie works as a search engine and provides on-the-fly formatting. Chordie does not index songs against artists/composers will. To remove this song please click here.

This song is displayed as text-only. Transposing and tuning is only available for chordpro-songs.

Login - add to songbook

Rating click stars to rate

Layout
Accuracy

SHARE PAGE  




You need to log in to post comments