Guitar Tabs, Chords and Lyrics


Delusional  Saves The Day

|-(5)-|   |-----|   |-----|   |-----|


|-(5)-|   |-----|   |--1--|   |--3--|


|--5--|   |--4--|   |--2--|   |--4--|

|--7--| |--7--| |--3--| |--5--|
|--7--| |--7--| |--3--| |--5--|
|-----| |-----| |-----| |-----|
            [A]                         
Fill 1:

This is a little off, I play acoustic though, and it sounds good to me.

|--3>5>3--1--0--0---|
|--3>5>3--1--0--1---|
|------------------0|
|-------------------|
|-------------------|
|-------------------|


Solo:

Still figuring that out.


Verse 1:

They're [Am]at the hous[A]e.
They're [Am]breakin' down the d[A]oors.
They [F]came to kill us [G]all.
There's [Am]no way o[Am]ut.

(Fill 1)


Chorus:
[F]All night [G]I [Am]dream that they're really ou[G]t to g[F]et me.  [G]    [Am]     [G]
[F]Lines on m[G]y [Am]face gettin' deeper e[G]very [F]day.   [G]

Verse 2:
They'll [Am]drag me out, [A]
And [Am]hang me from the t[A]rees,
[F]Upside down and [G]leave me...
To [Am]die a[Am]lone.

Chorus:
[F]All night [G]I [Am]dream that they're really ou[G]t to g[F]et me.  [G]    [Am]     [G]
[F]Lines on m[G]y [Am]face gettin' dee[G]per e[F]very da[G]y.

(Sol[Am]o etc.............[A]....)

[F]All night [G]I [Am]dream that they're really ou[G]t to g[F]et me.  [G]    [Am]     [G]
[F]Lines on m[G]y [Am]face gettin' dee[G]per e[F]very da[G]y.    [Am]      [G]
[F]I'm not a[G]t a[Am]ll..[G].D[F]elusi[G]onal[Am].    [G]
F G Am G F G A(slide down to end)
There's no way out.

That's it.

Note:

If you want to play this acoustic, I suggest you substitute the chords in this manner
adjust your strumming pattern:

|-----|   |-----|   |-----|   |--3--|
|--1--|   |-----|   |--1--|   |-----|
|--2--|   |--2--|   |--2--|   |-----|
|--2--|   |--2--|   |--3--|   |-----|
|-----|   |-----|   |--3--|   |--2--|
|-----|   |-----|   |-----|   |--3--|

Am Some weird A F G
           [A]                          

Important: The song above is NOT stored on the Chordie server. The original song is hosted at www.guitaretab.com. Chordie works as a search engine and provides on-the-fly formatting. Chordie does not index songs against artists'/composers' will. To remove this song please click here.

Text color:
Chord color:
Chord grids: 
Font size:    
Page size: 

A Am F G
variations - click chord images

Login - add to songbook

Transpose chords

Tuning

Rating click stars to rate

Layout
Accuracy

SHARE PAGE  




You need to log in to post comments