Guitar Tabs, Chords and Lyrics


Diseased  Saves The Day

|---------------------------------------------|


|---------------------------------------------|


|-6-6-----------------------------------------|

|-6-6-----6-6-----7-7-----9-9-----------------|
|-4-4-----6-6-----7-7-----9-9-----------------|
|---------4-4-----5-5-----7-7-----------------|
|---| |---| |---| |---| |---|
|-1-| |---| |-1-| |-3-| |-1-|
|-2-| |-1-| |-2-| |-4-| |-0-|
|-2-| |-2-| |-3-| |-5-| |-2-|
|-0-| |-2-| |-3-| |-5-| |-3-|
|---| |-0-| |(1)| |(3)| |---|
|---------------------------------------------|
|--5-----5-4-----4-4>5>4----------------------|
|----6-------5-----------6-4------------------|
|------6-------6-------------6----------------|
|---------------------------------------------|
|---------------------------------------------|
|---------------------------------------------|
|--1-----1-0-----0-0>1>0----------------------|
|----2-------1-----------2-0------------------|
|------2-------2-------------2----------------|
|---------------------------------------------|
|---------------------------------------------|
|---------------------------------------------|
|--4>5-4--------------------------------------|
|--------4>6-4>->->1--------------------------|
|------------------2--------------------------|
|------------------2--------------------------|
|---------------------------------------------|
[C#m]       [G#]      [A]      [E]       [G#2]      [E1]      [F#1]      [G#1]      [C#m2]       [B]                                
|(0)| |---| |(0)| |---|   |---| |---| |---| |---| |-9-| |---|
|-5-| |-4-| |-5-| |---|   |-5-| |---| |---| |---| |-9-| |-7-|
|-6-| |-5-| |-6-| |-1-|   |-5-| |-9-| |-11| |-13| |-9-| |-8-|
|-6-| |-6-| |-7-| |-2-|   |-6-| |-x-| |-x-| |-x-| |-11| |-9-|
|-4-| |-6-| |-7-| |-2-|   |-6-| |-7-| |-9-| |-11| |-11| |-9-|
|---| |---| |---| |-0-|   |---| |---| |---| |---| |---| |---|

Riff1 > Riff2 x2

        [C#m]    [G#]   [A]  [E]   [C#m]    [G#]   [A]  [E]        
[C#m]Walkin' down the h[G#]all but all the [A]doors are locked i[E]nside.
[C#m]Searchin' for some[G#]body just to [A]stay with for the [E]night.
C#m G#2, G# A E1 F#1 G#1
Please hear me please, I let my heart go.
I'm [C#m]dead, I'm d[G#2]iseas[G#]ed, I dream a [A]life of sorrow. [E1]   [F#1]    [G#1]
[C#m]Siftin' through the [G#]pictures of the g[A]host inside of my [E]mind.
[C#m]Somehow can't for[G#]get the times I [A]failed to get things [E]right.
C#m G#2, G# A E1 F#1 G#1
Please hear me please, I let my heart go.
I'm [C#m]dead, I'm d[G#2]iseas[G#]ed, I dream a [A]life of sorrow. [E1]   [F#1]    [G#1]
[C#m]Head hangs low, stare at the [G#]telephone.
C#m2 B A Riff 1
Forget the face you'll never know.
The [C#m]Night is long, shadows grow [G#]on my wall.
I'm callin' [C#m2]out but [B]no one's hom[A]e.


Riff1 > Riff2 x2

        [C#m]    [G#]   [A]  [E]   [C#m]    [G#]   [A]  [E]        

C#m G#2, G# A E1 F#1 G#1
Please hear me please, I let my heart go.
C#m G#2, G# A E1 F#1 G#1
I'm dead, I'm diseased, I dream a life of sorrow.
C#m G#2, G# A E
No strength left to scream, Oh-ho-hoo-wo-ho.

C#m, G#2, G# A E C#m G#2, G#, Riff3

Important: The song above is NOT stored on the Chordie server. The original song is hosted at www.guitaretab.com. Chordie works as a search engine and provides on-the-fly formatting. Chordie does not index songs against artists'/composers' will. To remove this song please click here.

Text color:
Chord color:
Chord grids: 
Font size:    
Page size: 

A B C#m E G# G#2
variations - click chord images

Login - add to songbook

Transpose chords

Tuning

Rating click stars to rate

Layout
Accuracy

SHARE PAGE  




You need to log in to post comments