Guitar Tabs, Chords and Lyrics


Under The Boards   Saves The Day



Song: Under The Boards
Album: Under The Boards
Tabber: Hector Rios
Tuning: 1/2 step down


Intro (x5):

Eb|------------------------------------------------------------------|
Bb|----1---1-0---------0---0------------0----------------0-----------|
Gb|--2---2-----2---2-1---1---2-1------2---2-2-0--------1---1-1-2-2/4-|
Db|------------------------------------2-------2-----2--2------------|
Ab|-0-0-0-0-0-0---0--------------------------------------------------|
Eb|-----------------0-0-0-0-0-0-(0)--1---1-1-1---1--1-0---0-0-0-0----|


Second Guitar Comes in the 3rd time around (heavy delay/reverb):

eb|------------------------------------------------------------------|
Db|---------------------------------------------------17t------------|
Gb|-14t

Important: The song above is NOT stored on the Chordie server. The original song is hosted at www.guitaretab.com. Chordie works as a search engine and provides on-the-fly formatting. Chordie does not index songs against artists/composers will. To remove this song please click here.

This song is displayed as text-only. Transposing and tuning is only available for chordpro-songs.

Login - add to songbook

Rating click stars to rate

Layout
Accuracy

SHARE PAGE  




You need to log in to post comments