Guitar Tabs, Chords and Lyrics


Turning Over In My Tomb   Saves The Day



Saves The Day
Turning Over In My Tomb
Under The Boards
12/01/07
sn.fifty@gmail.com

Great scary song. Song is covered in DVD.

Eb Tuning


Part one. Repeat as needed.
eb|--------------------------------------|
Bb|------1--------1--------1--------1----|
Gb|--------3--------3--------3--------3--|
Db|----0--------0--------0--------0------|
Ab|--------------------------------------|
Eb|--3--------2--------1--------0--------|


Part two.
eb|----------------------------------------------|
Bb|--------------3~----------3~-------------3-3--|
Gb|-3

Important: The song above is NOT stored on the Chordie server. The original song is hosted at www.guitaretab.com. Chordie works as a search engine and provides on-the-fly formatting. Chordie does not index songs against artists'/composers' will. To remove this song please click here.

This song is displayed as text-only. Transposing and tuning is only available for chordpro-songs.

Login - add to songbook

Rating click stars to rate

Layout
Accuracy

SHARE PAGE  




You need to log in to post comments