Chordie logo


Sailed Away   Saving Abel



im 15 and this is my first tab,i hope ya'll like it.

----------------------------------------------------------------------------
			     Sailed Away By Saving Abel
-----------------------------------------------------------------------------
Tabbed by:15yroldguy
Email:ward.redneck17@gmail.com

Tuning:Standard

e|---X------X------X--------------------------------------------------------|
B|---X------X------X--------------------------------------------------------|
G|---6------X------9-------4------------------------------------------------|
D|---6------7------9-------4------------------------------------------------|
A|4---------7---7--------2--------------------------------------------------|
E|X------5------X--------X--------------------------------------------------|

e|---X----X------X----------------------------------------------------------|
B|---X----X------X----------------------------------------------------------|
G|---6----X------9----------------------------------------------------------|
D|---6----7------9----------------------------------------------------------|
A|4-------7---7-------------------------------------------------------------|


Important: The song above is NOT stored on the Chordie server. The original song is hosted at www.guitaretab.com. Chordie works as a search engine and provides on-the-fly formatting. Chordie does not index songs against artists/composers will. To remove this song please click here.

This song is displayed as text-only. Transposing and tuning is only available for chordpro-songs.

Login - add to songbook

Rating click stars to rate

Layout
Accuracy

SHARE PAGE  




You need to log in to post comments