Red Cortina

Saw Doctors

e------|----------------------|-----------------------|
B------|----------------------|-----------------------|
G------|----------------------|-----------------------|
D------|-0--------------------|-0--4-2-----0-2--------|
A-0-2-4|---4-2---0-2-0---0-2-4|--------2-4-------0-2-4|
E------|-------4--------------|-----------------------|
e-----------------------------|----------------|
B-----------------------------|----------------|
G-----------------------------|----------------|
D-0--4-2-----0-2--------------|-0--------------|
A--------2-4------4-2-0--0-2-4|---4-2---0-2-0--|
E-----------------------------|-------4--------|


Verse 1:

 DEA
 Factory House outside the town
 DEA
 Pretty name i can't remember
D E A (Fill)
Christmas Party in seventy seven
 DEA
 heartbeat like an earthly tremor

Chorus 1:
(A) \
(forever and ever) |
D E A | X 2
First love stays with you forever /

 A
 (and ever and ever)
 DEA
 heartbeat like an earthly tremor
 A
 (forever and ever)
 DEA
 First love stays with you forever

e------|-----------------|
B------|-----------------|
G------|-----------------|
D------|-0---------------| X 2
A-0-2-4|---4-2---0-2-0---|
E------|-------4---------|


Verse 2: (Same Chords)

The way to school i'd try to meet you
your father used to drop you off
you'd step out of a red cortina
you looked so pretty on those winter mornings

Chorus 2:
As chorus 1 but substitute third line for:
 DEA
 you looked so pretty on those winter mornings

Repeat intro

Verse 3: (same Chords)

Close our eyes for just one moment (Sha la la la la laaaaaa)
disco at the start of summer (Sha la la la la laaaaaa)
sun still shining through the window (Sha la la la la laaaaaa)
and you were just about to blossom

chorus 3:
As chorus 1 but substitute third line for:
 DEA
 you were just about to blossom

Repeat intro x2

_________________________________

Fill:

e-------------|
B-2-3-2-0-----|
G---------2---|
D-------------|
A-------------|
E-------------|				



A D E
variations - click chord images
Transpose chords:
Tuning:
Cool service:
View: Size:
A  A  A
Rating:
Layout:
  • Currently 2.7/5 Stars.
  • 1
  • 2
  • 3
  • 4
  • 5
 
Accuracy:
  • Currently 3.8/5 Stars.
  • 1
  • 2
  • 3
  • 4
  • 5
 
click stars to rate
Chordie recommends:
Learn to play songs at Jamplay.com with video guitar lessons
Songbook:
Login to add this song to your songbook
Support the artist
Preview/buy this song
MSN Music
Why this non-profit ad?

 
login to add comments/video/corrections