Chordie logo

Presidential Suite   Say Anything



The Presidential Suite - Say Anything
Tabbed by: Turd Ferguson
(This is my first tab ever so it may be kinda ruff but it sounds pretty accurate.)


Tuning: Standard (EADGBe)
(Listen to the song for the rhythm)

Intro:
e|--xxx--|-----------------------------------|
B|--xxx--|-----------------------------------|
G|--xxx--|----66---66---66-------------9-----|
D|--xxx--|----77---77---77------7-9/11-------| X3
A|--xxx--|-----------------7/9---------------|
E|--xxx--|--5----5----5----------------------|
             "This is a punk rock song....."

e|--------------------------------|
B|--------------------------------|
G|----66----66----66----6---------|
D|----77----77----77----7---------|
A|--------------------------------|
E|--5-----5-----5-------5---------|


Chorus:
e|--------------------------------------------------------------------|
B|--------------------------------------------------------------------|
G|----66----66----66----6----6-----66----66----66-------6----6--------|
D|----77----77----77----7----7-----77----77----77-------7----7--------|
A|--------7-----4-----5----4-----------7-----5--------5----4----------|
E|--5----------------------------5------------------------------------|
  "You've been let on, completely wrong the whole time"

e|-------------------------------------------------------|
B|-------------------------------------------------------|
G|----66----66----66----6----6-----66----66----6------6--|
D|----77----77----77----7----7-----77----77----7------7--|
A|--------7-----4-----5----4-----------7-------5------5--|
E|--5----------------------------5-----------------------|
  "You've been let on, completely wrong the whole time"

Verse:
e|-----------------------------------|
B|-----------------------------------|
G|--7-----------------------7--------|
D|--7-------4-------5-------7--------| X2
A|----------4-------5-------5--------|
E|--7-------2-------3----------------|
  "They paved the way......."

e|-------x-------x------------------------------|
B|-------x-------x------------------------------|
G|--7-7--x--7-7--x--------------------7---------|
D|--7-7--x--7-7--x-----4------5-------7---------|
A|-------x-------x-----4------5-------5---------|
E|--7-7--x--7-7--x-----2------3-----------------|
  "Lie la, lie la, lie......"

e|----------------------------------------------|
B|----------------------------------------------|
G|--7--------------------------------------9----|
D|--7-------4-------5-------2-------5------9----|
A|----------4-------5-------2-------5------7----|
E|--7-------2-------3-------0-------3-----------|
  "Another pawn a pink......."

After the verse go back to the chorus and so on...



Its a pretty easy and fun song to play. I'm a big "say anything" fan and will continue 


Important: The song above is NOT stored on the Chordie server. The original song is hosted at www.guitaretab.com. Chordie works as a search engine and provides on-the-fly formatting. Chordie does not index songs against artists/composers will. To remove this song please click here.

This song is displayed as text-only. Transposing and tuning is only available for chordpro-songs.

Login - add to songbook

Rating click stars to rate

Layout
Accuracy

SHARE PAGE  

You need to log in to post comments