Guitar Tabs, Chords and Lyrics
Major upgrade!! After one year development the new version of Chordie is now online! Please give feedback.


Brilliant Sky  Saybia

Saybia - Brilliant Sky
 
 ----------------------

Standard tuning.
Chords:
[F] [C] [Bb] [Am] [Em]  
 
 e --1-- --0-- --6-- --0-- --0--
 B --1-- --1-- --6-- --1-- --0--
 G --2-- --0-- --7-- --2-- --0--
 D --3-- --2-- --8-- --2-- --2--
 A --3-- --3-- --8-- --0-- --2--
 E --1-- ----- --6-- ----- --0--

Intro:
Distortion + delay (1 bar, 4/4)
 
 e||-----------------|-s----------------|-s----------------|-s----------------|
 B||-3-3-3-3-3-3-3-3-|-/8-8-8-8-8-8-8-8-|-\1-1-1-1-1-1-1-1-|-/5-5-5-5-5-5-5-5-|
 G||-----------------|------------------|------------------|------------------|
 D||-----------------|------------------|------------------|------------------|
 A||-----------------|------------------|------------------|------------------|
 E||-----------------|------------------|------------------|------------------|
 e||-----------------|-s----------------|-s----------------|-s----------------|
 B||-3-3-3-3-3-3-3-3-|-/8-8-8-8-8-8-8-8-|-\1-1-1-1-1-1-1-1-|-/5-5-5-5-6-5-6-5-|
 G||-----------------|------------------|------------------|------------------|
 D||-----------------|------------------|------------------|------------------|
 A||-----------------|------------------|------------------|------------------|
 E||-----------------|------------------|------------------|------------------|

[F] [C]  
 
 e||-----------------|-s----------------|-s----------------|-s----------------|
 B||-3-3-3-3-3-3-3-3-|-/8-8-8-8-8-8-8-8-|-\1-1-1-1-1-1-1-1-|-/5-5-5-5-5-5-5-5-|
 G||-----------------|------------------|------------------|------------------|
 D||-----------------|------------------|------------------|------------------|
 A||-----------------|------------------|------------------|------------------|
 E||-----------------|------------------|------------------|------------------|

[F] [C]  
 
 e||-----------------|-s----------------|-s----------------|-s----------------||
 B||-3-3-3-3-3-3-3-3-|-/8-8-8-8-8-8-8-8-|-\1-1-1-1-1-1-1-1-|-/5-5-5-5-6-5-6-5-||
 G||-----------------|------------------|------------------|------------------||
 D||-----------------|------------------|------------------|------------------||
 A||-----------------|------------------|------------------|------------------||
 E||-----------------|------------------|------------------|------------------||

[F]Nothing has changed I'm exactly the same
as be[C]fore we went cruising in a highspeed lane
I'm still [F]dreaming of open sky open [C]road
The [F]grass is not greener on the other side
I know by [C]now, 'cause I walked the red carped and died
there is [F]so much more to life than what meets the [C]eye
We're [Bb]running wild on the [Am]ocean
running [F]wild
[F]Brilliant sky all [Am]over
[F] there's a brilliant sky all [Am]over these [Em]days, [F]days
[F] there's a brilliant sky all [Am]over these [Em]days, hang [F]on, hang on, hang on[F]
And I [C]thought I was safe on this one-way crusade
but [F]reality claimed my heart and my [C]friends
now [F]this is day one in the rest of my life
and I'm [C]feeling all grounded and my spirit is high
And I'm [F]longing for open sky open [C]road
We're [Bb]running wild on the [Am]ocean
Running [F]wild
[F]Brilliant sky all [Am]over
[F] there's a brilliant sky all [Am]over these [Em]days, [F]days
[F] there's a brilliant sky all [Am]over these days, these [F]days, hang on, hang on[F]
[C]Du du du..... [F]Du du du.....
[C]Du du du..... [F]Du du du.....
[C]Du du du..... [F]Du du du.....
(Brilliant sky)
[C]Du du du..... [F]Du du du.....
(Yes, brilliant sky)
We're [Bb]running wild on the [Am]ocean
Running [F]wild

Important: The song above is NOT stored on the Chordie server. The original song is hosted at www.guitaretab.com. Chordie works as a search engine and provides on-the-fly formatting. Chordie does not index songs against artists'/composers' will. To remove this song please click here.

Text color:
Chord color:
Chord grids: 
Font size:    
Page size: 

Am Bb C Em F
Rate #2 of 3 versions

Jango Player

Login - add to songbook

SHARE PAGE  




You need to log in to post comments