Guitar Tabs, Chords and Lyrics


Earth To Calm   Scott Matthews



******************************
Scott Matthews - Earth To Calm
******************************

Tabbed by  Maharg.

Tuning:

E - D
A - A
D - D
G - F#
B - A
E - D

Capo 2nd Fret

Intro/bridge

d ----14--14---14----14----14---14---14---14---14---14--|
a ------------------------------------------------------|
f#------0-----0-----0--------------0-----0----0---------|
d -----0-----0-----0-----0--------0-----0----0-----0----|
a ------------------------------------------------------|
d ----0-----0-----0-----0-------0------0----0-----0-----|


Verse

d -0-----------0-----------------0-----------------0----------------0------|
a ----12------------12---10-------------10---9-----------9---7-----------7-|
f#----------0------------------0-----------------0----------------0--------|
d -------12-------12--------11-------11--------9-------9--------8------8---|
a --------------0------------------0-----------------0---------------0-----|
d -----0-----------------0-------------------0---------------0-------------|


intro/bridge

Play verse and bridge once for intro


Bridge 2 (Fast fiddly Bit before chorus)

d ----------------------------4--4---4---4-|
a -----------------------------------------|
f#----------0-h-5-h-7-p-5-p-0---0---0---0--|  Play this twice
d 0-h-4-h-5--------------------0---0---0---|
a -----------------------------------------|
d ----------------------------0---0---0----|

Chorus...


d ---7--7---7---7------0---0---0------0---0---|
a -----------------0--------------0-----------|
f#-----5---5---5--5-5-----0----------1---3----|
d ----0---0---0----------0----0-----2---4-----|
a --------------------------------------------|
d ---5---5---5---5-----0----0---0-2----4------|


...then this after chorus to go back into bridge and then verse verse.


'...oh please don't let it be me.'

d -7--7---7---7------0---0----------0--------0--------0--------0---0---0---0-|
a ---------------0-----------0---1-----1--0-----0--1-----1--0----------------|
f#---5---5---5--5-5-----0-----0----1--1-1---0--0-0---1--1-1---0---0---0---0--|
d --0---0---0----------0----0-----0--------0--------0--------0---0---0---0---|
a -------------------------------1---1-------------1---1---------------------|
d -5---5---5---5-----0----0---------------0---0-------------0---0---0---0----|


Intro/Bridge

Verse etc...

Easy to work out from here how many times you play each part by listening to


Important: The song above is NOT stored on the Chordie server. The original song is hosted at www.guitaretab.com. Chordie works as a search engine and provides on-the-fly formatting. Chordie does not index songs against artists/composers will. To remove this song please click here.

This song is displayed as text-only. Transposing and tuning is only available for chordpro-songs.

Login - add to songbook

Rating click stars to rate

Layout
Accuracy

SHARE PAGE  




You need to log in to post comments