eToCache5 = ""; ?> Uncle Anesthesia by Screaming Trees - guitar chords, guitar tabs and lyrics - chordie

Uncle Anesthesia

Screaming Trees

 AA
e |-----------------------------|------------------------------|
B |-----------------------------|------------------------------|
G |---------------7b9r7--5------|------------------------------|
D |--7---7--7---------------7---|---7---7--7-------------------|
A |--7---7--7-------------------|---7---7--7-----5b7r5--3------|
E |--5---5--5-------------------|---5---5--5---------------5---|


 AA
e |-----------------------------|------------------------------|
B |-----------------------------|------------------------------|
G |---------------7b9r7--5------|--------------------7--7------|
D |--7---7--7---------------7---|-7--7-7-7---5-5-5---7--7------|
A |--7---7--7-------------------|-7--7-7-7---5-5-5---5--5------|
E |--5---5--5-------------------|-5--5-5-5---3-3-3-------------|


Verses

 D5A5
 Tries preach us in the dark
 C5G5
 By the river I hear you talking
 D5A5
 Strike a match to the Western sky
 C5G5
 Glowing fire in the sweet, sweet summertime

 D5A5C5G5D5A5C5G5
             (Alright)            

 D5A5
 Eyes betray what your words don't speak
 C5G5
 Burn my gaze with sadness (turn your head away)
 D5A5
 I'd rather be almost anywhere else
 C5G5A5
 A step away from madness     

Chorus

 D5C5G5A5
 No man's promised land tell me what you may
 D5C5G5A5
 Saw the moonlight waiting somewhere further on the way
 D5C5G5A5
 Wrong turn to Jahannon, I wonder if you'd stay
 D5C5G5
 No man...        

Solo:

 DFGD
e |---------10-----------------------|--------------------------------|
B |-10---10------13---13^15^13---12--|--12^13^12----------------------|
G |----------------------------------|-------------11^12^11^12^11^12--|
D |----------------------------------|--------------------------------|
A |----------------------------------|--------------------------------|
E |----------------------------------|--------------------------------|


 DFGD
e |---------10-----------------------|-------------10^12^10^12^10^12--|
B |-10---10------13---13^15^13---12--|--12^13^12----------------------|
G |----------------------------------|--------------------------------|
D |----------------------------------|--------------------------------|
A |----------------------------------|--------------------------------|
E |----------------------------------|--------------------------------|


 FG
e |---------------------------|
B |-13-----------12-----------|
G |---------------------------|
D |---------------------------|
A |---------------------------|
E |---------------------------|
e |------------------------------|
B |------------------------------|
G |------------------------------|
D |-5/7--7-7-5-5---5/7--7-7-5-5--|
A |-5/7--7-7-5-5---5/7--7-7-5-5--|
E |-3/5--5-5\3-3---3/5--5-5\3-3--| x2


 FG
e |-13-----------12-----------|
B |---------------------------|
G |---------------------------|
D |---------------------------|
A |---------------------------|
E |---------------------------|
e |------------------------------|
B |------------------------------|
G |-5/7--7-7-5-5---5/7--7-7-5-5--|
D |-5/7--7-7-5-5---5/7--7-7-5-5--|
A |-3/5--5-5\3-3---3/5--5-5\3-3--|
E |------------------------------| x2


Outro

 D5A5C5G5
 No man...   ...I wonder if you'll stay
 D5A5C5G5
             ...Yeah, wonder if you'll stay
 D5A5C5G5
             ...Yeah, wonder if you'll stay
 D5A5C5G5D5
             ...Yeah, wonder if, wonder if
 A5C5G5D5A5C5G5
 Wonder if, wonder if you'll stay             
 D5A5
             Wonder if, wonder if...


A A5 C5 D D5 F G G5
variations - click chord images
Transpose chords:
Tuning:
Cool service:
View: Size:
A  A  A
Rating:
Layout:
  • Currently 0/5 Stars.
  • 1
  • 2
  • 3
  • 4
  • 5
 
Accuracy:
  • Currently 0/5 Stars.
  • 1
  • 2
  • 3
  • 4
  • 5
 
click stars to rate
Chordie recommends:
Check out these online guitar lessons
Songbook:
Login to add this song to your songbook
Support the artist
Preview/buy this song
MSN Music
Why this non-profit ad?

 
login to add comments/video/corrections