Guitar Tabs, Chords and Lyrics


I Want Your Brain   Screeching Weasel













BAND=Screaching Weasel
SONG= want your brain
ALBUM=oogadaboogadaboogada

intro=3Df#5(6th string) to f5(5th string)

verse=3Df#5(5th string) to b5 to e5(5th string) to b5

chorus=3Da5 to b5 to f#5(5th string) to e5(5th string) to f#5(5th string)=
 =


solo:

---------------------------------------------------------------------------=
---------------------------------------------------------------------------=
---7-7-9-8-7---------------5-5-7-6-5---7-7-9-8-7---------------------------=
---------------------------------------------------------------------------=
----------------4-4-6-5-5--------------------------------------------------=
---------------------------------------------------------------------------=
-------------------------------------------------------------4-4-6-5-4-----=
-------------2-2-4-3-2---4-4-6-5-4-----------------------------------------=
---------------------------------------------------------------------------=
--2-2-4-3-2----------------------------------------------------------------=
---------------------------------------------------------------------------=
---------------------------------------------------------------------------=

(If anyone knows the words to "We Skate," could you email them to Rudeb12=
3)


Important: The song above is NOT stored on the Chordie server. The original song is hosted at www.guitaretab.com. Chordie works as a search engine and provides on-the-fly formatting. Chordie does not index songs against artists/composers will. To remove this song please click here.

This song is displayed as text-only. Transposing and tuning is only available for chordpro-songs.

Login - add to songbook

Rating click stars to rate

Layout
Accuracy

SHARE PAGE  




You need to log in to post comments