Compact Disc

Screeching Weasel

 E
    It's the most technologically advanced
 F#D
Sound reproduction known to man
A E (w/ slides up from D#)
At least in the commercially viable sense
A(pm)
That thing you're listening to is called a compact disc
D(pm) A(pm)
Every subtle nuance of a tune is made available to you
A(pm)
That thing you're listening to is a high-tech dream come true
D(pm) A(pm)
Technically it works with laser beams yet you can learn to use it easily
 EF#
   Throw your scratched, dusty records in the trash
 DA
It's time to move out of the past
E (w/ slides up from D#)
In the profit analysis sense

(Solo)

 A
    That thing you're listening to is called a waste of time
 DA
An inferior and overpriced product of an underactive mind
 A
    That thing you're listening to is a multi-flawed industry scam
 D
Devoid of any thought or heart at all
 A
It's the antithesis of rock and roll
 E
   But no one cares that a record sounds better
 F#DA
Cause you just can't buy them so it just doesn't matter at all
E (w/ slides up from D#)
And that's common sense

( End on A )

(Solo w/ rhythm guitar chords)
 ADA
E-------------------------------------------------
B-------------------------------------------------
G-------------------------------------------------
D-------------------------------------------7-----
A-----7-7----5-4-5-4--------4-5-4---4-5-4-5---7---
E--5-----------------5-5----------5---------------


 DA
E-------------------------------------------------
B-------------------------------------------------
G-------------------------------------------------
D-------------------------------------------7-----
A-----7-7----5-4-5-4--------4-5-4---4-5-4-5---7---
E--5-----------------5-5----------5---------------


 DADA
E------------------------------------------------
B------------------------------------------------
G------------------------------------------------
D------------------------------------------------
A--5-4-----7-5-4-5-4---------5-4-----7-5-4-5-4---
E------7-5-----------------------7-5-------------


 DE
E----------------------
B----------------------
G----------------------
D----------------------
A--5-4-----------4-7---
E------7-5-2-5-7-------


http://www.geocities.com/marvindepressed/swtabs.html


A D E F#
variations - click chord images
Transpose chords:
Tuning:
Cool service:
View: Size:
A  A  A
Rating:
Layout:
  • Currently 3.6/5 Stars.
  • 1
  • 2
  • 3
  • 4
  • 5
 
Accuracy:
  • Currently 3.7/5 Stars.
  • 1
  • 2
  • 3
  • 4
  • 5
 
click stars to rate
Chordie recommends:
Learn how to play guitar at JamPlay.com
Songbook:
Login to add this song to your songbook
Support the artist
Preview/buy this song
MSN Music
Why this non-profit ad?

 
login to add comments/video/corrections