Guitar Tabs, Chords and Lyrics


Amy Saw Me Looking At Her Boobs   Screeching Weasel



Tabbed By Matt Shepard

Screeching Weasel - Amy saw me looking at her boobs

Intro :
| --------------------------- |
| --------------------------- |
| ----2h-3--2-----2h-3---2--- |
| --3-----------3------------ |
| --------------------------- |
| --------------------------- |

Riff 1 :
| -------------- |
| -------------- |
| --5----------- |
| --5--5--7--5-- |
| --3--5--7--5-- |
| -----3--5--3-- |

Riff 2 :
| -------------------------- |
| -------------------------- |
| --7-----7-----7-----5----- |
| --7--5--7--5--7--5--5--5-- |
| --5--5--5--5--5--5--3--5-- |


Important: The song above is NOT stored on the Chordie server. The original song is hosted at www.guitaretab.com. Chordie works as a search engine and provides on-the-fly formatting. Chordie does not index songs against artists'/composers' will. To remove this song please click here.

This song is displayed as text-only. Transposing and tuning is only available for chordpro-songs.

Login - add to songbook

Rating click stars to rate

Layout
Accuracy

SHARE PAGE  




You need to log in to post comments