Something Wrong

Screeching Weasel

   |------------|

e------------------|
b------------------|
g------------------|
D------------------|
A------------------|
E---[5]--[5]-[5]---|
e-------------------------------------|
b---7-7-7-7-7-7-7-7-7-7-7-7-7-7-7-7---|
g-------------------------------------|
D-------------------------------------|
A-------------------------------------|
E-------------------------------------|

 B5
e-------------------------------------|
b-------------------------------------|
g---4-4-4-4-4-4-4-4-4-4-4-4-4-4-4-4---|
D---4-4-4-4-4-4-4-4-4-4-4-4-4-4-4-4---|
A---2-2-2-2-2-2-2-2-2-2-2-2-2-2-2-2---|
E-------------------------------------|


0:12

Bridge:

Gtr. 1

e----------------------------------------------------------|
b---6/-7-7-6/-7-7-6/-7-7--7-7--6/-7-7-6/-7-7-6/-7-7--7-7---|
g----------------------------------------------------------|
D----------------------------------------------------------|
A----------------------------------------------------------|
E----------------------------------------------------------|
e----------------------------------------------------------|
b---6/-7-7-6/-7-7-6/-7-7--7-7--6/-7-7-6/-7-7-6/-7-7--7-7---|
g----------------------------------------------------------|
D----------------------------------------------------------|
A----------------------------------------------------------|
E----------------------------------------------------------|


Gtr. 2

 B5E5Gb5B5E5Gb5
e----------------------------------------------------------|
b----------------------------------------------------------|
g---4--4-4---------------------4--4-4----------------------|
D---4--4-4-2--2-2-4--4-4--4-4--4--4-4-2--2-2-4--4-4--4-4---|
A---2--2-2-2--2-2-4--4-4--4-4--2--2-2-2--2-2-4--4-4--4-4---|
E----------0--0-0-2--2-2--2-2---------0--0-0-2--2-2--2-2---|


 B5E5Gb5B5E5Gb5
e----------------------------------------------------------|
b----------------------------------------------------------|
g---4--4-4---------------------4--4-4----------------------|
D---4--4-4-2--2-2-4--4-4--4-4--4--4-4-2--2-2-4--4-4--4-4---|
A---2--2-2-2--2-2-4--4-4--4-4--2--2-2-2--2-2-4--4-4--4-4---|
E----------0--0-0-2--2-2--2-2---------0--0-0-2--2-2--2-2---|


0:22

Verse:

Gtr. 1

 B5E5Gb5E5
e-----------------------------------------|
b-----------------------------------------|
g---4--4-4-4------------------------------|
D---4--4-4-4-2--2-2-2-4--4-4-4-2--2-2-2---|
A---2--2-2-2-2--2-2-2-4--4-4-4-2--2-2-2---|
E------------0--0-0-0-2--2-2-2-0--0-0-0---|


 B5E5Gb5E5
e-----------------------------------------|
b-----------------------------------------|
g---4--4-4-4------------------------------|
D---4--4-4-4-2--2-2-2-4--4-4-4-2--2-2-2---|
A---2--2-2-2-2--2-2-2-4--4-4-4-2--2-2-2---|
E------------0--0-0-0-2--2-2-2-0--0-0-0---|


Gtr. 2

 B5E5Gb5E5
e-----------------------------------------|
b-----------------------------------------|
g---4--4-4-4------------------------------|
D---4--4-4-4-2--2-2-2-4--4-4-4-2--2-2-2---|
A---2--2-2-2-2--2-2-2-4--4-4-4-2--2-2-2---|
E------------0--0-0-0-2--2-2-2-0--0-0-0---|


 B5E5Gb5E5
e-----------------------------------------|
b-----------------------------------------|
g---4--4-4-4------------------------------|
D---4--4-4-4-2--2-2-2-4--4-4-4-2--2-2-2---|
A---2--2-2-2-2--2-2-2-4--4-4-4-2--2-2-2---|
E------------0--0-0-0-2--2-2-2-0--0-0-0---|


0:32

Chorus:

Gtr. 1

 Db5E5Gb5
e---------------------------------------------------|
b---------------------------------------------------|
g---6-6-6-6-6-6-6-6---------------------------------|
D---6-6-6-6-6-6-6-6-2-2-2-2-2-2-2-2-4-4-4-4-4-4-4---|
A---4-4-4-4-4-4-4-4-2-2-2-2-2-2-2-2-4-4-4-4-4-4-4---|
E-------------------0-0-0-0-0-0-0-0-2-2-2-2-2-2-2---|


 Gb5
e---------------------|
b---------------------|
g---------------------|
D---4-4-4-4-4-4-4-4---|
A---4-4-4-4-4-4-4-4---|
E---2-2-2-2-2-2-2-2---|


Gtr. 2

 Db5E5Gb5
e---------------------------------------------------|
b---------------------------------------------------|
g---6-6-6-6-6-6-6-6---------------------------------|
D---6-6-6-6-6-6-6-6-2-2-2-2-2-2-2-2-4-4-4-4-4-4-4---|
A---4-4-4-4-4-4-4-4-2-2-2-2-2-2-2-2-4-4-4-4-4-4-4---|
E-------------------0-0-0-0-0-0-0-0-2-2-2-2-2-2-2---|


 Gb5
e---------------------|
b---------------------|
g---------------------|
D---4-4-4-4-4-4-4-4---|
A---4-4-4-4-4-4-4-4---|
E---2-2-2-2-2-2-2-2---|


End on B5.

*ORDER*

Intro...

Bridge...

(Verse...)
Another nota, another tenor, another gig
Another day of friendly askin' what the frig?...

(Chorus...)
Another stupid girl
Another fucked up inner-world
And another cigarette

Bridge...

(Verse...)
Another fifteen hour drive through nowhere-land
Another twenty-seven bucks into the van...

(Chorus...)
Another stupid world
Another fucked up little girl
And I'm up all night again

(Bridge...)
There must be something wrong with us
There must be something wrong with us
There must be something wrong with us

Bridge...

(Bridge...)
There must be something wrong with us
There must be something wrong with us
There must be something wrong with us


B5 Db5 E5 Gb5
variations - click chord images
Transpose chords:
Tuning:
Cool service:
View: Size:
A  A  A
Rating:
Layout:
  • Currently 0/5 Stars.
  • 1
  • 2
  • 3
  • 4
  • 5
 
Accuracy:
  • Currently 2.3/5 Stars.
  • 1
  • 2
  • 3
  • 4
  • 5
 
click stars to rate
Chordie recommends:
Learn how to play guitar at JamPlay.com
Songbook:
Login to add this song to your songbook
Support the artist
Preview/buy this song
MSN Music
Why this non-profit ad?

 
login to add comments/video/corrections