Vulnerable Acoustic

Secondhand Serenade

 CAmFG
e|-------------1--3-----------------------------------|
B|--1----1-----1--3-----------------------------------|
G|--0----2-----2--------------------------------------|
D|--2----2-----3--------------------------------------|
A|--3----------3--2-----------------------------------|
E|-------------1--3-----------------------------------|


Intro:
e|----3-1p0-----------3--------------------------|
B|-----------1--------3--------------------------|
G|-----------------------------------------------|
D|--2--------------------------------------------|
A|-3---------------2-----------------------------|
E|---------------3-------------------------------|


 CGAmF
 Share with me the blankets that your wrapped in      
 AmFAmG
Because its cold outside cold outside its cold out side
 CGAmF
 Share with me the secrets that you kept in            
 AmFAmG
Because its cold inside cold inside its cold inside   

Prechorus
 AmF
 And your slowly shaking finger tips
 CG
 Show that your scared like me so
 AmFCG
 Let pretend were alone                   
 AmF
 And I no you may be scared
 CG
 And I no were unprepared 
C ...
But I don't care

Chorus:
 C
Tell me tell me
 AmFG
What makes you think that you are invincible
 AmFG
I can see it in your eyes that your so sure 
 AmFCGC
Please don;t tell me that I am the only one that's vulnerable
 G
Impossible

same chords:
I was born to tell you I love you
Its that a song already
I get a B in originality
And its true I cant go on without you
Your smile makes me see clear
If you could only see in the mirror what I see
And your slowly shaking finger tips
Show that your scared like me so

Let pretend were alone
And I no you may be scared
And I no were unprepared
But I don't care

Chorus:same chords

 AmFGAmF
 Slow down girl your not going anywhere
 AmF
 Just wait around and see
 CGAmFG
 Maybe I am much more you never no what lies ahead
 AmFCG
 I promise I can be anyone I can be anything
 CAmFG
 Just because you were hurt doesn't mean you shouldn't bleed
 GG
I can be anyone anything I promise I can be what you need

Chorus

My stupid intro lolz just putting it....
e|---------3------1p0----------1---3--------------|
B|-------0------------1--------1---3--------------|
G|------0---------------------2-------------------|
D|-----2--------------------3---------------------|
A|----3-------------------3-----------------------|
E|-----------------------1---------3--------------|


Thnx hope u like please.........lolz


Am C F G
variations - click chord images
Transpose chords:
Tuning:
Cool service:
View: Size:
A  A  A
Rating:
Layout:
  • Currently 2/5 Stars.
  • 1
  • 2
  • 3
  • 4
  • 5
 
Accuracy:
  • Currently 2.7/5 Stars.
  • 1
  • 2
  • 3
  • 4
  • 5
 
click stars to rate
Chordie recommends:
Get acoustic guitar lessons and electric guitar lessons at JamPlay.com
Songbook:
Login to add this song to your songbook
Support the artist
Preview/buy this song
MSN Music
Why this non-profit ad?

 
login to add comments/video/corrections