Guitar Tabs, Chords and Lyrics


Au Naturel  See Spot Run



E|--9-----9-----9--9-----6h7p6-----|

B|-----7-----7--------7---------7--|
G|---------------------------------|
D|---------------------------------|
A|---------------------------------|
E|---------------------------------|
E|--7-----7-----7--7-----7-----|
B|-----7-----7--------7-----7--|
G|-----------------------------|
D|-----------------------------|
A|-----------------------------|
E|-----------------------------|
E|--10-----10-----10--10-----10-----|
B|------7------7----------7------7--|
G|----------------------------------|
D|----------------------------------|
A|----------------------------------|
E|----------------------------------|
E|--7-----7-----7--7-----7-----10--|
B|-----7-----7--------7-----7------|
G|---------------------------------|
D|---------------------------------|
A|---------------------------------|
E|---------------------------------|
E|--6h7--6h7-9--9--9-6h7--|
B|------------------------|
G|------------------------|
D|------------------------|
A|------------------------|
E|------------------------|
[B5]   Au natur[D5]el, you take away the [A5]pain, leave me with [E5]scars to remember
you
[B5]   Au natur[D5]el, you never found it [A5]hard, and you [E5]won't let go of me
[B5]   Au natur[D5]el, I [A5]     yeah [E5]

Riff 1 x 4

(Riff 1)
See the moonlight in your eyes

Oh the beauty, there's no disguise
(Riff 2) (Riff 3) (Riff 1)
Au naturel, I adore you
(Riff 4)
Au naturel

Riff 1 x 2, F#5 played once over riff

Chorus

Interlude: (E5 - 022xxx)

[E5]      [A5]      [E5]      [A5]    [G5]      [E5]      [A5]  [E5] 
Bass fill:
G|-----------------------|
D|-----------------------|
A|-----------------------|
E|--0--0--0--5--0--5--3--|


There is a solo here, it's the same length as the chorus and the same
chords. I couldn't figure all of it out.

Riff 1 x 4

(Riff 1)
On the outside, looking in

How you doing, how you been
(Riff 2) (Riff 3) (Riff 1)
Au naturel, I adore you
(Riff 4)
Au naturel

[F#5]                                     
(Riff 1)
I adore you

Fade out with Riff 1 and Riff 5

http://www.angelfire.com/mi/Grenfell/index.html

Important: The song above is NOT stored on the Chordie server. The original song is hosted at www.guitaretab.com. Chordie works as a search engine and provides on-the-fly formatting. Chordie does not index songs against artists'/composers' will. To remove this song please click here.

Text color:
Chord color:
Chord grids: 
Font size:    
Page size: 

A5 B5 D5 E5 F#5 G5
variations - click chord images

Login - add to songbook

Transpose chords

Tuning

Rating click stars to rate

Layout
Accuracy

SHARE PAGE  




You need to log in to post comments