Chordie logo

Frost Bite   Seigmen



'Frost Bite' the closing song from the Monument album.
Tabbed by newm1ke.

This one's a bit tricky as there's a lot of effects/synths so its hard to pick out
everything, but it sounds pretty good.

Tuning: Standard Tuning

INTRO Synth's for guitar
|--------------------------------------------|
|--------------------------------------------|
|---------------------11~13~14~--------------|
|------------------------------14-12-11~9~7~-|
|-9~~~~~7~5~2~9~7~5~2~-----------------------|
|--------------------------------------------|

INTRO BASS
|--------------|
|--------------|
|-9~-7~-5~-2~~-|
|--------------|
0:48
|-----------------------------|
|-----------------------------|
|-9~-7~-5~-2~~~~~-0~-2~-0~-2~-|
|-----------------------------|

              |----------|
Synth for     |----------|
  guitar      |----------|
              |-11~9~7~6~
              |----------|
              |----------| x4

1:15 synth for guitar
|-----------------------------------------------|
|-----------------------------------------------|
|-11~13~14~16~11~13~14~-------------------------|
|----------------------14-12-11~9~7~--11~9~7~~~-|
|-----------------------------------9~----------|
|-----------------------------------------------|
Bass
|-------------    |------------|
|-------------    |------------|
|-9~-7~-5~-2~-    |-9~-7~-5~~~-|
|------------- x3 |------------|
1:55
|-------------|
|-------------|
|-2~-0~-2~-0~-| repeat for a bit
|-------------|

2:14 Guitar (clean w/delay)
|--------12------------------12-------|
|--12-15----14--12~----12-15----14~~--|
|-------------------------------------|
|-------------------------------------|
|-------------------------------------|
|-------------------------------------|

3:54 Clean (w/delay)
|-------------------------------------|-------------------------------------|
|-------------------------------------|-------------------------------------|
|-----18-------16-------12------11----|-----16-------14-------12------11----|
|-------------------------------------|-------------------------------------|
|---16--16---14--14---10--10---9--9---|---14--14---12--12---10--10---9--9---|
|-------------------------------------|-------------------------------------|
                                    x2|

|-----------------------------------|
|------------------19---------------|
|----19--19/21--21-----19--21--18---|
|--19--19-----19-----19--19--19--19-|
|-----------------------------------|

|-----------------------------------|

Then a lot of synth effects.

BASS ends on a held A
|------|
|------|
|-0~~~~


Important: The song above is NOT stored on the Chordie server. The original song is hosted at www.guitaretab.com. Chordie works as a search engine and provides on-the-fly formatting. Chordie does not index songs against artists/composers will. To remove this song please click here.

This song is displayed as text-only. Transposing and tuning is only available for chordpro-songs.

Login - add to songbook

Rating click stars to rate

Layout
Accuracy

SHARE PAGE  

You need to log in to post comments