Chordie logo


Total   Seigmen



|--------------------------------------------------------------------------|
|--------------------------------------------------------------------------|
|--------------------------------------------------------------------------|
|---0/2--2h3----------------0/2--2h3---------------0/2--2h3----------------|
|---------------2----------------------1-----------------------2/7---------|
|-0----0-----0------------0----0-----0-----------0-----0----0--------------|

|--------------------------------------------------------------------------|
|--------------------------------------------------------------------------|
|--------------------------------------------------------------------------|
|----0/2---2h3----3h2------------------------------------------------------|
|------------------------5--3--2-------------------------------------------|
|-0------0------0-----0----------------------------------------------------|

            gjør detta 3 ganger eller noe, så begynner sangen

|--------------------------------------------------------------------------|
|--------------------------------------------------------------------------|
|--------------------------------------------------------------------------|
|--------------------------------------------------------------------------|
|-0-----2------------------------------------------------------------------|


Important: The song above is NOT stored on the Chordie server. The original song is hosted at www.guitaretab.com. Chordie works as a search engine and provides on-the-fly formatting. Chordie does not index songs against artists/composers will. To remove this song please click here.

This song is displayed as text-only. Transposing and tuning is only available for chordpro-songs.

Login - add to songbook

Rating click stars to rate

Layout
Accuracy

Jango Player

SHARE PAGE  




You need to log in to post comments