Guitar Tabs, Chords and Lyrics


Maennerliebe  Sekoys

Intro [Gitarre 1]:
A*/A**/e 2x

& [Gitarre 2 (nebenbei]:
e-----------------------------------------------------|
h------2-------2-------0-------0-------2-------2------|
g----2---2---2---2---2---2---2---2---2---2---2---2----|
d------------------0-------0-----------------------0--|
a--0-------0-----------------------0-------0----------|
e-----------------------------------------------------|


Strophe 1 [Gitarre 1 (Tabs wie im Intro und der Bridge]:
A*
Ich laufe durch die Straßen,
A**
ganz allein und ohne Ziel.
A*
In Gedanken bist nur du,
A** A*
ja, wie es mir gefiel; mit dir zu geh´n,
A**
mit dir zu geh´n;
A* A**
Doch nun, bleibe ich steh´n.

Bridge [Gitarre 1]:
A*/A**/e 2x

& [Gitarre 2 (nebenbei]:
e-----------------------------------------------------|
h------2-------2-------0-------0-------2-------2------|
g----2---2---2---2---2---2---2---2---2---2---2---2----|
d------------------0-------0-----------------------0--|
a--0-------0-----------------------0-------0----------|
e-----------------------------------------------------|


Strophe 2 [Gitarre 1 (Tabs wie im Intro und der Bridge]:
A*
Wie ich dich geliebt hab,
A**
wie es mir dir war;
A*
Ich muss, nur noch an dich denken,
A**
doch genau jetzt wird mir klar,
A* A**
dass du gegangen bist; ganz ohne mich!
A* A**
Oh ja: Ich liebe dich!

Refrain 1 [Gitarre 1 (jetzt die Tabs (A*/A**/e) als Akkorde]:
A* A** e
Nur weil der TÜV gesagt hat nein, (nein)
A* A** e
soll Ende mit unserer Beziehung sein; oh, nein!
A* A** e
Nie wieder Querbeschleunigungen!
A* A** e
Bei deinem Anblick stehen die Stunden;

Ich lauf Runden!

Bridge [Gitarre 1]:
A*/A**/e 2x

& [Gitarre 2 (nebenbei]:
e-----------------------------------------------------|
h------2-------2-------0-------0-------2-------2------|
g----2---2---2---2---2---2---2---2---2---2---2---2----|
d------------------0-------0-----------------------0--|
a--0-------0-----------------------0-------0----------|
e-----------------------------------------------------|


Refrain 2 [Gitarre 1]:
[E]Oh A[G]uto, sch[D]ön war es mit dir!
[E]Nur, weil deine Br[G]emsen, ni[D]e funktioniern; oh!
[E]Oh A[G]uto, we[D]nn ich in dir liege,
E G D D*D
ist das im Angesicht: Männerliebe!

Bridge [Gitarre 1]:
A*/A**/e 2x

& [Gitarre 2 (nebenbei]:
e-----------------------------------------------------|
h------2-------2-------0-------0-------2-------2------|
g----2---2---2---2---2---2---2---2---2---2---2---2----|
d------------------0-------0-----------------------0--|
a--0-------0-----------------------0-------0----------|
e-----------------------------------------------------|


Refrain 1 [Gitarre 1 (jetzt die Tabs (A*/A**/e) als Akkorde]:
A* A** e
Nur weil der TÜV gesagt hat nein, (nein)
A* A** e
soll Ende mit unserer Beziehung sein; oh, nein!
A* A** e
Nie wieder Querbeschleunigungen!
A* A** e
Bei deinem Anblick stehen die Stunden;

Ich lauf Runden!

Refrain 2 [Gitarre 1]:
[E]Oh A[G]uto, sch[D]ön war es mit dir!
[E]Nur, weil deine Br[G]emsen, ni[D]e funktioniern; oh!
[E]Oh A[G]uto, we[D]nn ich in dir liege,
E G D D*D
ist das für dich und mich: Männerliebe!

Outro [Gitarre 1]:
e------------------------------------------------------------------------------------------0~~~--|
h------2-------2-------0-------0-------2-------2-------0-------0-------2-------2-------0---0~~~--|
g----2---2---2---2---2---2---2---2---2---2---2---2---2---2---2---2---2---2---2---2---2---2-2~~~--|
d------------------0-------0-----------------------0-------0-----------------------0-------0~~~--|
a--0-------0-----------------------0-------0-----------------------0-------0---------------X~~~--|
e------------------------------------------------------------------------------------------X~~~--|

---> "Dieses Lied,
widme ich meinem Passat,
der nicht durch den TÜV kam.
Passat: Ich liebe dich!" --->


A* A** D* G
e--0--|--0--|--3--|   e--3--|
h--2--|--0--|--3--|   h--3--|
g--2--|--2--|--2--|   g--0--|
d--0--|--0--|--0--|   d--0--|
a--X--|--X--|--X--|   a--2--|
e--X--|--X--|--X--| & e--3--| (das G klingt besser, wenn man es so spielt)				


Important: The song above is NOT stored on the Chordie server. The original song is hosted at www.guitaretab.com. Chordie works as a search engine and provides on-the-fly formatting. Chordie does not index songs against artists'/composers' will. To remove this song please click here.

Text color:
Chord color:
Chord grids: 
Font size:    
Page size: 

D E G
variations - click chord images

Login - add to songbook

Transpose chords

Tuning

Rating click stars to rate

Layout
Accuracy

SHARE PAGE  




You need to log in to post comments