Chordie logo


Even The Strong Wont Survive   Self Against City



---------------------------------------------------------------------------
		 SELF AGAINST CITY: Even The Strong Won't Survive
---------------------------------------------------------------------------
Tabbed by: Andrew P.
Email: aspak_321@yahoo.com

Tuning: FBGDAD

Notes:
•As a quick heads up, the high "e" string is tuned up a step to F... I found it a lot 
for the intro, and you won't need to use it later in the song anyway. And tune your guitar 
Drop D.

•Good song, put a little time into it.

Intro:
F|--------0----------------8-------------0-------------0----------------|
B|------8---------------10------------8-------------10---------8--10----|
G|--10-------[x4]----10------[x4]--10----[x4]---10--------10------------|
D|----10---------------10------------10-----------10---------10---------|
A|----------------------------------------------------------------------|
D|----------------------------------------------------------------------|

Verse:
[Note: Here are the chords to the verse, basically the intro strummed together- figure 
how they come in =P)
F|----------------------------------------------------------------------|
B|--8-----10------------------------------------------------------------|
G|--10----10------[x2]--------------------------------------------------|
D|--10----10------------------------------------------------------------|
A|----------------------------------------------------------------------|
D|----------------------------------------------------------------------|

Mini-Riff:
(1 Line of the Intro.)

Pre-Chorus:
F|----------------------------------------------------------------------|
B|----------------------------------------------------------------------|
G|----------------------------------------------------------------------|
D|-3--------8----------7---------5--------------------------------------|
A|-3--------8----------8---------5------[x2]----------------------------|
D|-3--------8----------5---------5--------------------------------------|

Chorus:
F|----------------------------------------------------------------------|
B|----------------------------------------------------------------------|
G|-------------14-/--12-------------12----------------------------------|
D|--12-12-12---x--/--x----10-10-10--x----------------9--10--------------|
A|--12-12-12---12-/--10---10-10-10--10----[x2]-------9--10--------------|
D|--12-12-12--------------10-10-10-------------------9--10--------------|

Mini-Riff (At about 1:25):
Literally Alternating frets 10 and 9 on the G-string...

Then Pre-Chorus...
Ends on Chorus...

Appreciate this and things in life =].

| /  slide up
| \  slide down
| h  hammer-on
| p  pull-off
| ~  vibrato
| +  harmonic
| x  Mute note


Important: The song above is NOT stored on the Chordie server. The original song is hosted at www.guitaretab.com. Chordie works as a search engine and provides on-the-fly formatting. Chordie does not index songs against artists/composers will. To remove this song please click here.

This song is displayed as text-only. Transposing and tuning is only available for chordpro-songs.

Login - add to songbook

Rating click stars to rate

Layout
Accuracy

SHARE PAGE  




You need to log in to post comments