Guitar Tabs, Chords and Lyrics


October 4th  Seo Taiji

e ---0------0------x--|


B ---0------0------3--|


G ---2------2------2--|

D ---2------2------0--|
A ---0------2------0--|
E ---x------0------x--|
     [Asus2]       [Esus4]       [D]                  
Intro:


[Asus2]         [Esus4]         [Asus2]          [Esus4]  wenji
Verse:


[Asus2]yojume nan sonyo [Esus4]ga to olla
[Asus]nega sumul momchul te  [Esus4]   norul to olligo [Asus2]he
Ne nunga[Esus4]en aryonhan shijore no[Asus2]muna chalbado[E]n giog malgonun obnunde[Asus2]
non myotnyo[Esus4]nina humpog joj[Asus2]o nal [E]chuogke [Asus2]he       [Esus4]        [Asus2]         [Esus4]
Chorus:

[Asus2]Nega     [Esus4]ne gyothe obg[Asus2]ie       [Dsus2]         [Asus2]   non [Esus4]do nege sojung[Asus2]he

nonun [Dsus2]you ga   [Asus2]tha      [Esus4]         [Asus2]         [Esus4]
Verse: 8TH NOTE DOWNSTROKES (STRUM)


Jam[Esus4]kan nega jamdun [Esus4]saie non ne gwid[Asus2]gae sog     [Esus4]sagyosso
ocheso [Esus4]non nal jabji[Esus4]do anhasso[Asus2]nyago         won[Esus4]manghesso
Ne[Asus2]gen   ne[Esus4]ga nomu mal[Asus2]gaso mal  [E]mothesso
Chorus:

[Asus2]Nega   [Esus4]ne gyothe obgie [Asus2]          [D]yeah[Asus2]       [Esus4]non do nege soj[Asus2]unghe

nonun [D]you ga   [Asus2]tha      [Esus4]         [Asus2]            [Esus4]         [Asus2]  Nega obgie [Esus4]  igose obgie
[Asus2]  nega obgie [Esus4]non arumdaaaa
Bridge:
Each measure has four counts.


wo
e|-0--------0----|-0--------0----|-0--------0----|--x------
b|----0--------0-|----0--------0-|----0--------0-|--3------
g|-------2-------|-------2-------|-------2-------|--2------
d|---------------|---------------|---------------|--0------
a|---------------|---------------|---------------|--0------
e|---------------|---------------|---------------|--x------


stan stan stan stan stan stan stan...
e|-0--------0----|-0--------0----|-0--------0----|-x------
b|----0--------0-|----0--------0-|----0--------0-|-3------
g|-------2-------|-------2-------|-------2-------|-2------
d|---------------|---------------|---------------|-0------
a|---------------|---------------|---------------|-0------
e|---------------|---------------|---------------|-x------


nega ne gyothe igose obgie
e|-----------------|-----------------|------------------|------------
b|-------10--------|-------9---------|-------10---------|----10------
g|----9------------|----9------------|----9-------------|-9----------
d|-7---------------|-6---------------|-4----------------|------------
a|-----------------|-----------------|------------------|------------
e|-----------------|-----------------|------------------|------------



Chorus, end:

[Asus2]non do [Esus4]nege sojunghe  [Asus2]

nonun [D]you ga [Asus2]  tha    [Esus4]         [Asus2]            [Esus4]         [Asus2]  Nega obgi[Esus4]e   igose obgie
[Asus2]  nega obgie [E]non arumdaaaa
End:

wo
e|-0--------0----|-0--------0----|-0--------0----|--x------|
b|----0--------0-|----0--------0-|----0--------0-|--3------|
g|-------2-------|-------2-------|-------2-------|--2------|
d|---------------|---------------|---------------|--0------|
a|---------------|---------------|---------------|--0------|
e|---------------|---------------|---------------|--x------|



Remember to tune down a half step if you want to play the Live Tour
Zero 04 version. In my opinion, it sounds better. If you want to sing
the 7th issue version, simply capo 1st fret.


Any questions/comments? Drop me a line: yokan@sbcglobal.net. AIM: superaverageguy

Important: The song above is NOT stored on the Chordie server. The original song is hosted at www.guitaretab.com. Chordie works as a search engine and provides on-the-fly formatting. Chordie does not index songs against artists'/composers' will. To remove this song please click here.

Text color:
Chord color:
Chord grids: 
Font size:    
Page size: 

Asus Asus2 D Dsus2 E Esus4
variations - click chord images

Login - add to songbook

Transpose chords

Tuning

Rating click stars to rate

Layout
Accuracy

SHARE PAGE  




You need to log in to post comments