Guitar Tabs, Chords and Lyrics


Bestial Devastation   Sepultura



Hello This is full album Bestial Devastation from Sepultura(1985)
It have 5 songs and is very good
Sepultura rulezz
by Iorgu Mihai,Romania
iorgumihai@yahoo.com

1. The Curse
2. Bestial Devastation
3. Antichrist
4. Necromancer
5. Warriors Of Death


1.The Curse(Intro)

2.BESTIAL DEVASTATION

e|------------|
B|------------|
G|------------|
D|-------3----|
A|--2----1----|
E|--0---------|

e|---------------------------------------|
B|---------------------------------------|
G|---------------------------------------|
D|---------------------------------------|
A|---------------------------------------|
E|--6-6-6-6-...-0-0-0-0-...-1-1-1-1-...--|

e|----------------------------------|
B|----------------------------------|
G|----------------------------------|
D|----------------------------------|
A|----------2-----3-----8-----2-2---|
E|--0-0-0-0-0-0-0-1-0-0-6-0-0-0-0---|

e|-------------------------------------------------|
B|-------------------------------------------------|
G|-------------------------------------------------|
D|-------------------------------------------------|
A|--------------------2-3---------------------8-7--|
E|--0-0-0-0-0-0-0-...-0-1-0-0-0-0-0-0-0-0-...-6-5--|


3.Antichrist

e|-----------------------|
B|-----------------------|
G|-----------------------|
D|-----------------------|
A|--------------3--3--3--|
E|--0-0-0-0-...-1--1--1--|

e|--------------------------------|
B|--------------------------------|
G|--------------------------------|
D|-----------------------3--3--3--|
A|--0-0-0-1-0-0-0-1-...--1--1--1--|
E|--------------------------------|

e|--------------------------------------------------|
B|--------------------------------------------------|
G|--------------------------------------------------|
D|--------------------------------------------------|
A|--3-3-3-3------2--2-2-3-3-3-3-----2--2-2-(3)/4-2--|
E|--1-1-1-1-...--0--0-0-1-1-1-1-...-0--0-0-(1)/2-0--|


4.Necromancer
e|-------|
B|-------|
G|-------|
D|-------|
A|--3-2--|
E|--1-0--|

e|------------------------------|
B|------------------------------|
G|------------------------------|
D|------------------------------|
A|------4-3---3-2-----4-3---3---|
E|--0-0-2-1-0-1-0-0-0-2-1-0-1---|

e|-----------|
B|-----------|
G|-----------|
D|--6-5-4-3--|
A|--4-3-2-1--|
E|-----------|

e|------------------------------------|
B|------------------------------------|
G|------------------------------------|
D|------------------------------------|
A|------------------------------------|
E|--0-0-0-0-...--1-1-1-...-4-4-4-...--|




5.Warriors of Dead

Intro drums

------------------------------------------------------------
------------------------------------------------------------
------------------------------------------------------------
---------------------------------------------------9-----8--
-----------------------7-6-7-----------------------7-----6--
--0-0-0--6-5-6--0-0-0---------0-0-0--6-5-6--0-0-0----0-0----



Verse
------------------------------------------------------
------------------------------------------------------
------------------------------------------------------
------------------------------------------------------
-----------------------------5-6-8-5-1-0---5-6-8-5-1-0
-5-6-8-5-1-0----5-6-8-5-1-0---------------------------

Little break pt 1
--------------------------
--------------------------
--------------------------
--------------------------
-7-6-1-0---7-6-7-6-1-0...-

Little breal pt 2
-----------------------------------
-----------------------------------
-----------------------------------
-----------------------------------
-----8/7-----9/8----10/9----10/11--
-0-0-6/5-0-0-7/6-0-0-8/7-0-0-8/9 --

Then intro


Little background
------------------
------------------
------------------
------------------
-2-5-4-3-2--------
-0-3-2-1-0--------

Guitar solo ( i play it in to versions, this is the first )
2x
--------------------------------------------------------------------
-12121212121212121212--13131313131313-121212121212-1010101010101010-
--------------------------------------------------------------------
--------------------------------------------------------------------
--------------------------------------------------------------------
--------------------------------------------------------------------

While Jairo plays that, Max plays the background


Heavy part ( i love play that )

-------------------------------
-------------------------------
-------------------------------
-------------------------------
-2-5-3-2-5-6-------------------
-0-3-1-0-3-4-------------------


____________________________________________________________________________


Lyrics


1. The Curse

The curse is launched, beware
The Lord of Death declared the war
Satanas is invoked to destroy
And to command the bestial
Devastation


2. Bestial Devastation

A legion of demons
Born from boundaries of death
Like a onslaught of evil
To destroy this Earth

Covering the morbid skies
Like a mist of sulphur
I can see Satanas
The cursed of death
Terminate masses and reigns
With blood axes of hate
The beasts of son of devil
Tormenting the preachers of Christ

The humans try to react
To this nuclear war
Which is like a endless pain
Burning in the fire of Hell


3. Antichrist

Born from Hell
The supreme force of evil
To destroy the altar
And slaughter the christian's born

Churches will be destroyed
Crosses will be brocken
He's laughing in blasphemy
Like a domination of death

Antichrist

The war is started
Heavens on fire
From the deep of Hell
Leaving words of hate

Antichrist

The terror is declared
The final fight started
The Antichrist and Lucifer
Fighting with angels and God

Antichrist


4. Necromancer

The mist is high in this night
Can feel the presence of death
Way to the mortuary so the deads will invoke
Corpses and skulls in my countour
See a corpse bloody with the face in cruciform
Now being from the wrath
Catch the skulls of a children, frozen and dismal
Coming with me
Creature, kill in name of Hell
The black mess is started, life's will terminate
With the wrath of the demons started the genocide
Wrath, in my corpus is born
Death, lost legions from Hell
Slaughter, you'll see in sacrifice
Skulls, are christians with blood

Necromancer
Dead's invoker
Necromancer
Dead's invoker

Wrath, odious, desire
In my corpus is born
The fates last, terror's spread
For a necros creature of
The crypts'


5. Warriors Of Death

Marching over the mist
Leaving behind the wheack's
Going this endless war
Like a tormenting nightmare

Over the devastated ruins
I raised a sign
The sign of hate
For a masses despair

To revenged the years
Arrested in abyss
Where Jesus Christ
Made his suffer

But the final command
Is happening here now
Which I see is the ruins
And warriors marching to death






Important: The song above is NOT stored on the Chordie server. The original song is hosted at www.guitaretab.com. Chordie works as a search engine and provides on-the-fly formatting. Chordie does not index songs against artists'/composers' will. To remove this song please click here.

This song is displayed as text-only. Transposing and tuning is only available for chordpro-songs.

Login - add to songbook

Rating click stars to rate

Layout
Accuracy

SHARE PAGE  




You need to log in to post comments