Guitar Tabs, Chords and Lyrics


I Can Walk In Your Mind   Servant



okay, theres three guitar parts to this song. PLUS! i was looking for this song for 
long time. and i found it. and i wanted to make it easier for you guys to find it. because 
sucha rad song. and yeah, here ya go. and i hope you enjoy this tab. (it's my first tab)

so any questions on it. email me stevie_420@hotmail.com

E------6-------6h8p6----6--6----|-----6-------------6--------|
B---6----6----------------------|---6----6-------6-----6-----|
G-3---------3--------7--------7-|-8---------8-7-----------7--|
D-------------------------------|----------------------------|
A-------------------------------|----------------------------|
e-------------------------------|----------------------------|

E--------6--------6h8p6------6---6-----|
B----4-----4---------------------------|
G-5-----------5-----------8---------8--|
D--------------------------------------|
A--------------------------------------|
e--------------------------------------|

E-------5--------11--------------11---|
B----6-----6---------10------10-------|
G-3-----------5----------10-----------|
D-------------------------------------|       REPEATx4
A-------------------------------------|
e-------------------------------------|


Guitar II

E----------------------------------|------------------------------|
B----------------------------------|------------------------------|
G-------3--------3h5p3-----3--3----|--------3-------------3-------|
D----3-----3-----------------------|------3---3---------3---3-----|
A-1-----------1---------5-------5--|-6--6-------6---5--5------5---|
e----------------------------------|------------------------------|

E------------------------------------|---------------------------|
B------------------------------------|---------------------------|
G--------3-------3h5p3-----3--3------|------2-------8--------8---|
D------1---1-------------------------|----3---3--------7---7-----|REPEATx3
A-3--3-------3----------6-------6----|----------3--------8-------|
e------------------------------------|-1-------------------------|


Guitar III

E-6---|----------|------|-1---|
B-6---|----------|------|-1---|
G-7x9-|-8----8---|-8----|-2---|
D-8---|-8x3--8x3-|-8x9--|-3x9-|   REPEATx3
A-8---|-6----5---|------|-3---|
e-6---|----------|-8----|-1---|


Guitar I
E----------------11--------|
B-------10----------10-----|
G----10----10----------10--| REPEAT INTRO ONCE
D-13-----------------------|
A--------------------------|
e--------------------------|


Guitar II
E---------------------|
B------------4--------|
G------2--------2-----|REPEAT RIFF Guitar II ONCE
D-1--3---3---------3--|
A---------------------|
e---------------------|




Important: The song above is NOT stored on the Chordie server. The original song is hosted at www.guitaretab.com. Chordie works as a search engine and provides on-the-fly formatting. Chordie does not index songs against artists/composers will. To remove this song please click here.

This song is displayed as text-only. Transposing and tuning is only available for chordpro-songs.

Login - add to songbook

Rating click stars to rate

Layout
Accuracy

SHARE PAGE  




You need to log in to post comments