Chordie logo

Echoes Acoustic   Set Your Goals



Okay, so this is my second tab.  My first one failed epically, so I hope i can do better 
this one.
I'm quite surprised that theres only ONE tab out for this song, and its in the wrong 
 (Well it sounds right, but its definitely not how SYG actually plays it)  PLUS, it's 
as an intro.
It's a fairly easy song.  If you're singing it can make it a little bit more difficult 
the progression is a bit funny, but just PRACTICE, and I promise you'll get it.

Tuning is Eb (dropped "half a step" for the newbies out there =] )

/=Slide


So we're going to start this off with the intro.  (Of course we are!  It's an intro!)

You're going to want to have slight distortion on this, and I'm not going to give you 
strumming, because there's way too much of it.  Just listen and figure it out =]

    The fourth time playing this riff leave out the last chord (2
eb|----------------------------------------------|              2
Bb|----------------------------------------------|              0)
Gb|--4/6-2-----6-2----4-2---4/6-2-----9---4--2---|  x4
Db|--4/6-2-----6-2----4-2---4/6-2-----9---4--2---|
Ab|--2/4-0-----4-0----2-0---2/4-0-----7---2--0---|
Eb|----------------------------------------------|

(The quick bullet, a tough one to dodge)
eb|--------------------------------------------|
Bb|--------------------------------------------|
Gb|--2----6--4--2----9--4--2----6--4--2----9--4|
Db|--2----6--4--2----9--4--2----6--4--2----9--4|
Ab|--0----4--2--0----7--2--0----4--2--0----7--2|
Eb|--------------------------------------------|

(And they would end the pain)
eb|-----------------------------|
Bb|-----------------------------|
Gb|-6/2----6/2--4----6/2----9--4|
Db|-6/2----6/2--4-2--6/2----9--4|
Ab|-4/0----4/0--2-2--4/0----7--2|
Eb|---------------0-------------|

(The name of a ghost still dancing on our tongues)
eb|----------------------------------------------|
Bb|----------------------------------------------|
Gb|-2----6--4--2----9--4----2--6--4--2------9--4-|
Db|-2----6--4--2----9--4----2--6--4--2------9--4-|
Ab|-0----4--2--0----7--2----0--4--2--0------7--2-|
Eb|----------------------------------------------|

(Soon you will end the pain)
eb|-----------------------------|
Bb|-----------------------------|
Gb|-6/2----6/2--4----6/2----9--4| x2
Db|-6/2----6/2--4-2--6/2----9--4|
Ab|-4/0----4/0--2-2--4/0----7--2|
Eb|---------------0-------------|

(Nobody ever warned you)
eb|------|
Bb|------|
Gb|------|
Db|-6/2--|
Ab|-6/2--|
Eb|-4/0--|

(Breathe in, take it in deep)
eb|-----------------------------|
Bb|-----------------------------|
Gb|-6/2----6/2--4----6/2----9--4| x10
Db|-6/2----6/2--4-2--6/2----9--4|
Ab|-4/0----4/0--2-2--4/0----7--2|
Eb|---------------0-------------|

ENDING
eb|-----|
Bb|-----|
Gb|-6/2-|
Db|-6/2-|
Ab|-4/0-|
Eb|-----|

There ya go.  A few kinks in there, but I'm sure you can figure them out.

Now, as I promised, the acoustic version is no different, and it is NOT how SYG performs 
song, but just a personal preference that I found sounded more mellow, and had that 
tone to it.

Basically, all you are doing is playing the song as tabbed above, but adding the B and e 
playing them open the whole time.  It sounds better if you play it slower, so don't 
complaining to me telling me you played this song full speed and it "didn't sound right".

I'll tab it out for you in case you don't understand what I'm going for here.

eb|--0-0-0-----0-0----0-0---0-0-0-----0---0--0---|
Bb|--0-0-0-----0-0----0-0---0-0-0-----0---0--0---|
Gb|--4/6-2-----6-2----4-2---4/6-2-----9---4--2---|  x4
Db|--4/6-2-----6-2----4-2---4/6-2-----9---4--2---|
Ab|--2/4-0-----4-0----2-0---2/4-0-----7---2--0---|
Eb|----------------------------------------------|


eb|--0----0--0--0----0--0--0----0--0--0----0--0|
Bb|--0----0--0--0----0--0--0----0--0--0----0--0|
Gb|--2----6--4--2----9--4--2----6--4--2----9--4|
Db|--2----6--4--2----9--4--2----6--4--2----9--4|
Ab|--0----4--2--0----7--2--0----4--2--0----7--2|
Eb|--------------------------------------------|


eb|-0-0----0-0--0-0--0-0----0--0|
Bb|-0-0----0-0--0-0--0-0----0--0|

Gb|-6/2----6/2--4-x--6/2----9--4|
Db|-6/2----6/2--4-2--6/2----9--4|
Ab|-4/0----4/0--2-2--4/0----7--2|
Eb|---------------0-------------|

eb|--0----0--0--0----0--0----0----0--0--0----0--0|
Bb|--0----0--0--0----0--0----0----0--0--0----0--0|
Gb|--2----6--4--2----9--4----2----6--4--2----9--4|
Db|--2----6--4--2----9--4----2----6--4--2----9--4|
Ab|--0----4--2--0----7--2----0----4--2--0----7--2|
Eb|----------------------------------------------|


eb|-0-0----0-0--0-0--0-0----0--0|
Bb|-0-0----0-0--0-0--0-0----0--0|
Gb|-6/2----6/2--4-x--6/2----9--4| x2
Db|-6/2----6/2--4-2--6/2----9--4|
Ab|-4/0----4/0--2-2--4/0----7--2|
Eb|---------------0-------------|


eb|-0-0--|
Bb|-0-0--|
Gb|-6/2--|
Db|-6/2--|
Ab|-4/0--|
Eb|------|


eb|-0-0----0-0--0-0--0-0----0--0|
Bb|-0-0----0-0--0-0--0-0----0--0|
Gb|-6/2----6/2--4-x--6/2----9--4| x2
Db|-6/2----6/2--4-2--6/2----9--4|
Ab|-4/0----4/0--2-2--4/0----7--2|
Eb|---------------0-------------|


eb|-0-0-|
Bb|-0-0-|
Gb|-6/2-|
Db|-6/2-|
Ab|-4/0-|
Eb|-----|




Important: The song above is NOT stored on the Chordie server. The original song is hosted at www.guitaretab.com. Chordie works as a search engine and provides on-the-fly formatting. Chordie does not index songs against artists/composers will. To remove this song please click here.

This song is displayed as text-only. Transposing and tuning is only available for chordpro-songs.

Login - add to songbook

Rating click stars to rate

Layout
Accuracy

SHARE PAGE  



You need to log in to post comments