Chordie logo


Ugly   Sevendust



Band - Sevendust
Song - Ugly
Album - Next
Tuning(Both Guitars) - B,Gb,B,E,Ab,Db or B,F#,B,E,G#,C#

Notes: I'm back tabbing Sevendust tabs guys I know I left you guys hanging for awhile. 
here's their first single off of their latest album Next and this should be pretty 
Enjoy!!

Intro/Both Guitars
|-------------------------------------0-0-0-|
|-------------------------------------3-3-3-|
|-------------------------------------2-2-2-|
|-------------------------------------0-0-0-| The end part w/ wah
|-0-2-2-2-2-2-2h3-2~--0-2h3-2~--0-2h3-------|
|-0-2-2-2-2-2-2h3-2~--0-2h3-2~--0-2h3-------|
P.M................   .......   .....
Fill
|------|
|------|
|------|
|-2~~~-|
|-2~~~-|
|-2~~~-|

Pre-Chorus - The palm mutes here are in a strange sequence, you have to listen to the CD 
the correct way, I just gave you the rough idea.
|-------------------------------------------------------------|
|-------------------------------------------------------------|
|-------------------------------------------------------------|
|-------------------------------------------------------------|
|-------------------------------------------------------------|
|-000-000-000-000-000-0-0-0-0-0-0-000-000-000-000-000-0-000-0-|
P.M.. ... ... ... ... . . . . . . ... ... ... ... ... . ... .

Chorus/Guitar 1 - Strumming pattern may be off, but you get the idea.
|--------------------------------------------------------------|
|--------------------------------------------------------------|
|--------------------------------------------------------------|
|-2-2-2-2-2-2-2-2-2/9-9-9-9-9-9-10-10-10-10-10-10-5-5--5-5-5-5-|
|-2-2-2-2-2-2-2-2-2/9-9-9-9-9-9-10-10-10-10-10-10-5-5--5-5-5-5-|
|-2-2-2-2-2-2-2-2-2/9-9-9-9-9-9-10-10-10-10-10-10-5-5--5-5-5-5-|

|-------------------------------------------------|
|-3-3-3-3-3-3-3-----------------------------------|
|-2-2-2-2-2-2-2-----------------------------------|
|-0-0-0-0-0-0-0-10-10-10-10-10-10-10-10-10-10/12~-|
|-0-0-0-0-0-0-0-10-10-10-10-10-10-10-10-10-10/12~-|
|-0-0-0-0-0-0-0-10-10-10-10-10-10-10-10-10-10/12~-|

Chorus/Guitar 2
|--------------------------------------------------------------|
|--------------------------------------------------------------|
|--------------------------------------------------------------|
|-2-2-2-2-2-2-2-2-2/9-9-9-9-9-9-10-10-10-10-10-10-5-5--5-5-5-5-|
|-2-2-2-2-2-2-2-2-2/9-9-9-9-9-9-10-10-10-10-10-10-5-5--5-5-5-5-|
|-2-2-2-2-2-2-2-2-2/9-9-9-9-9-9-10-10-10-10-10-10-5-5--5-5-5-5-|

|----------------------------------------------------|
|-3-3-3-3--------------------------------------------|
|-2-2-2-2--9-9-9\7-7-7-------------7\5-5-5-5-5-5-5/7-|
|-0-0-0-0--x-x-x-x-x-x-10-10-10-10-x-x-x-x-x-x-x-x-x-|
|-0-0-0-0--7-7-7\5-5-5-10-10-10-10-5\3-3-3-3-3-3-3/5-|
|-0-0-0-0--------------10-10-10-10-------------------|

Chorus Notes: You should be able to know where each chord kicks in by listening to the CD.

Play Intro

Play Fill

Verse
|-----------------------------------------------|
|-----------------------------------------------|
|-----------------------------------------------|
|-----------------------------------------------|
|-0-2-2-2-2-2-2h3-2~--0-2h3-2~--0-2h3-2~--0-2-0-|
|-0-2-2-2-2-2-2h3-2~--0-2h3-2~--0-2h3-2~--0-2-0-|
P.M................   .......   .......   .....

|-------------------------------------------------|
|-------------------------------------------------|
|-------------------------------------------------|
|-------------------------------------------------|
|-0-2-2-2-2-2-2h3-2~--0-2h3-2~--0-2h3-2~--0-222-0-|
|-0-2-2-2-2-2-2h3-2~--0-2h3-2~--0-2h3-2~--0-222-0-|
P.M................   .......   .......   .......

Play Pre-Chorus

Play Chorus

Play Intro without the wah part.

Bridge/Guitar 1 play Pre-Chorus under guitar 2.

Solo/Guitar 2 w/ wah
|--------------------------------------------------------------|
|-888888888888\77777777777-----------888/101010\888\7777777777-|
|-xxxxxxxxxxxx\xxxxxxxxxxx-7-7-5-7-9-xxx/x-x-x-\xxx\xxxxxxxxxx-|
|-555555555555\44444444444-x-x-x-x-x-555/7-7-7-\555\4444444444-|
|--------------------------5-5-3-5-7---------------------------|
|--------------------------------------------------------------|

|---------------------|
|-5-8-10-12--12/13\12~|
|-x-x-x--x---x-/x-\x--|
|-2-5-7--9---9-/10\9~-|
|---------------------|
|---------------------|

Acoustic Bridge - Guitar 1 Play Chorus

Play Chorus

Play Intro



Important: The song above is NOT stored on the Chordie server. The original song is hosted at www.guitaretab.com. Chordie works as a search engine and provides on-the-fly formatting. Chordie does not index songs against artists/composers will. To remove this song please click here.

This song is displayed as text-only. Transposing and tuning is only available for chordpro-songs.

Login - add to songbook

Rating click stars to rate

Layout
Accuracy

SHARE PAGE  




You need to log in to post comments