Guitar Tabs, Chords and Lyrics


December   Shadows Fall



-------------------------------------------------------------------------------
			     DECEMBER (Cover) - Shadows Fall
-------------------------------------------------------------------------------
Email: Stealyastile101@aol.com

Song: December (Cover)
Band: Shadows Fall
Original Band: Only Living Witness
Album: Fallout from the War
Tuning: Drop C

This is my first tab, and I had to submit this because I was looking for a tab for this
and searched google for hours and all that came up was the same bass tab over and over again.

The song has an odd bpm, so the rhythm was hard to show with dashes. But the beat isn't
hard to figure out.

Intro A
D|--------------------------------|
A|--------------------------------|
F|7-------5-------5-7-8-7\--------|
C|7-------5-------5-7-8-7\--------|
G|5-------3-------3-5-6-5\--------|
C|--------------------------------| X4

Intro B
D|--------------------------------|
A|--------------------------------|
F|--------------------------------|
C|0-0-----0---00--0---0xxx0--0----|
G|0-0-----0---00--0---0xxx0--0----|
C|0-0-----0---00--0---0xxx0--0----| X3

D|--------------------------------|
A|--------------------------------|
F|--------------------------------|
C|0-------0---0------0--0--0------|
G|0-------0---0------0--0--0------|
C|0-------0---0------0--0--0------|

Verse
D|--------------------------------------|
A|--------------------------------------|
F|--------------------------------------|
C|0---x-x-x-0---0---x---0--0--0---x-x-x-|
G|0---x-x-x-0---0---x---0--0--0---x-x-x-|
C|0---x-x-x-0---0---x---0--0--0---x-x-x-| X3

D|--------------------------------------|
A|--------------------------------------|
F|--------------------------------------|
C|0---x-x-x-0---0---x---0--0--0---3-3-3-|
G|0---x-x-x-0---0---x---0--0--0---3-3-3-|
C|0---x-x-x-0---0---x---0--0--0---3-3-3-|
X2, but on the 8th measure, play this:
D|--------------------------------------|
A|--------------------------------------|
F|--------------------------------------|
C|0---x-x-x-0---0---x---0-0-3-3-3-5-5-5-|
G|0---x-x-x-0---0---x---0-0-3-3-3-5-5-5-|
C|0---x-x-x-0---0---x---0-0-3-3-3-5-5-5-|
(For the muted notes, I like to lightly bar my finger on the first fret, giving a 
sound.)

Chorus
D|--------------------------------------------------|
A|--------------------------------------------------|
F|--------------------------------------------------|
C|1/3-3-3-3-3-3-3-3\1-x-x-x-1/3---3---3---3----(3)--|
G|1/3-3-3-3-3-3-3-3\1-x-x-x-1/3---3---3---3----(3)--|
C|1/3-3-3-3-3-3-3-3\1-x-x-x-1/3---3---3---3----(3)--|

D|--------------------------------------------------|
A|--------------------------------------------------|
F|--------------------------------------------------|
C|1/3-3-3-3-3-3-3-3\1-x-x-x-3---3---x-x-3---5---3---|
G|1/3-3-3-3-3-3-3-3\1-x-x-x-3---3---x-x-3---5---3---|
C|1/3-3-3-3-3-3-3-3\1-x-x-x-3---3---x-x-3---5---3---|

D|--------------------------------------------------|
A|--------------------------------------------------|
F|--------------------------------------------------|
C|1/3-3-3-3-3-3-3-3\1-x-x-x-1/3---3---3---3----(3)--|
G|1/3-3-3-3-3-3-3-3\1-x-x-x-1/3---3---3---3----(3)--|
C|1/3-3-3-3-3-3-3-3\1-x-x-x-1/3---3---3---3----(3)--|

D|--------------------------------------------------|
A|--------------------------------------------------|
F|--------------------------------------------------|
C|1/3-3-3-3-3-3-3-3\1-x-x-x-3---5---x-x-3---2---1---|
G|1/3-3-3-3-3-3-3-3\1-x-x-x-3---5---x-x-3---2---1---|
C|1/3-3-3-3-3-3-3-3\1-x-x-x-3---5---x-x-3---2---1---|

[) = optional, quiet if played]

Verse

Verse Var.
D|--------------------------------------|
A|--------------------------------------|
F|--------------------------------------|
C|0---x-x-x-0---0---x---0--0--0---x-x-x-|
G|0---x-x-x-0---0---x---0--0--0---x-x-x-|
C|0---x-x-x-0---0---x---0--0--0---x-x-x-|

D|--------------------------------------|
A|--------------------------------------|
F|--------------------------------------|
C|0---x-x-x-0---5--3----0-3--6-5--0-3---|
G|0---x-x-x-0---5--3----0-3--6-5--0-3---|
C|0---x-x-x-0---5--3----0-3--6-5--0-3---|

Play Verse Var. twice

Chorus

Bridge

D|------------|
A|------------|
F|--7---------|
C|0-7-0-3-2-1-|
G|0-5-0-3-2-1-|
C|0-0-0-3-2-1-| X3

D|------------|
A|------------|
F|--7---------|
C|0-7xxx3-2-1-|
G|0-5xxx3-2-1-|
C|0-0xxx3-2-1-|

Play Bridge twice

Verse

Intro A Var.
D|--------------------------------------------|
A|--------------------------------------------|
F|7-------5-------5-7-8-7\--------------------|
C|7-------5-------5-7-8-7\xxxxx---xxxxx---xxxx|
G|5-------3-------3-5-6-5\xxxxx---xxxxx---xxxx|
C|------------------------xxxxx---xxxxx---xxxx| X3

D|-------------------------------------|
A|-------------------------------------|
F|7-------5-------5-7-8-5-7-8-10-8-7---|
C|7-------5-------5-7-8-5-7-8-10-8-7---|
G|5-------3-------3-5-6-3-5-6-8-6-5----|
C|-------------------------------------|

Verse

Bridge

| /  slide up
| \  slide down
| h  hammer-on
| p  pull-off
| ~  vibrato
| +  harmonic
| x  Mute note


If you get confused at all, this is the song part order:
Intro A
Intro B
Verse
Chorus
Verse
Verse Var. X2
Chorus
Bridge X2
Verse
Interlude (Intro A Var.)
Verse
Bridge

If you listen to the song, it's easy to understand. Also, another note, there are slight
in the song. They are very minor, like one chord differences. Listen to when they are.
know there's a small one in one of bridge that goes 3 2 3 instead of 3 2 1. It's small 
like that.

Any corrections, email me or leave a comment. Remember this is the first time I've
a whole song; although that doesn't mean I'm not going to accept critisism. Every comment


Important: The song above is NOT stored on the Chordie server. The original song is hosted at www.guitaretab.com. Chordie works as a search engine and provides on-the-fly formatting. Chordie does not index songs against artists'/composers' will. To remove this song please click here.

This song is displayed as text-only. Transposing and tuning is only available for chordpro-songs.

Login - add to songbook

Rating click stars to rate

Layout
Accuracy

SHARE PAGE  




You need to log in to post comments