Guitar Tabs, Chords and Lyrics


Somber Angel   Shadows Fall



  First 32 seconds

 D|------------------------------|
 A|------------------------------|
 F|-------------------2---3-2----|
 C|-----2-3-2-0-----3---3-----3--|
 G|---0---------3-1-------------1|     ___
 C|-0----------------------------|
                                        2X
 D|------------------------------|     ___
 A|------------------------------|
 F|------------------------------|
 C|-----2-3-2-0---3~-------------|
 G|---0---------3-1~-------------|
 C|-0----------------------------|

                             hp
 D|------------------------1-010---|
 A|----------------------3-------3-|  ___
 F|--------0-----0-----2-----------|  
 C|------0-----0---0---------------|   2X
 G|-0~-1---1/3---------------------|  ___


Important: The song above is NOT stored on the Chordie server. The original song is hosted at www.guitaretab.com. Chordie works as a search engine and provides on-the-fly formatting. Chordie does not index songs against artists'/composers' will. To remove this song please click here.

This song is displayed as text-only. Transposing and tuning is only available for chordpro-songs.

Login - add to songbook

Rating click stars to rate

Layout
Accuracy

SHARE PAGE  




You need to log in to post comments