Sleepwalk

Shadows

 CAmFmGCAmFmG
e|--------|--------|-----|----------|--------|--------|-----|----------|
b|-13-------------------8-9-8---------13-------------------8-9-8-------|
g|----------12-------10-------10-9-------------12~------10-------10-9--|
d|---------------------------------------------------------------------|
a|---------------------------------------------------------------------|
E|---------------------------------------------------------------------|


C Am Fm G C(*) Am Fm G
e|----------|---|------|-----------|------|------|---------|-15-15---|
b|-----8---------------------------------8---------------13----------|
g|-7s9---9-7--------5-7-7h8p7p5h7----7s9---9~-------12s14------------|
d|-----------7----7--------------------------------------------------|
a|-------------------------------------------------------------------|
E|-------------------------------------------------------------------|


Repeat above with the following turnaround to lead into the next progression at *(last 4 bars)

 CFCC7
e|------|-----|-----------|-------|
b|--------------13---13-15-13-----|
g|---5-5-5~-----------------------|
d|--------------------------------|
a|--------------------------------|
E|--------------------------------|


The next bit of the song....

 FFmCFCC7
e|-------------------|------------------|--------------8-8-10-|------------|
b|-----15b16b15---13------15b16b15---13-----------8-10----------8----------|
g|-14-----------------13-----------------12---7s9-------------------7b-5-7-|
d|-------------------------------------------------------------------------|
a|-------------------------------------------------------------------------|
E|-------------------------------------------------------------------------|


 FFmGG7
e|-------------------|------------------|---------------------|------------|
b|-----15b16b15---13------15b16b15---13--------11b12-----------------9-10-12
g|-14-----------------13-----------------12-12-------12-10-12--10-12-------|
d|-------------------------------------------------------------------------|
a|-------------------------------------------------------------------------|
E|-------------------------------------------------------------------------|


Back to the start again with Hank throwing in a few frills here and there.

Enjoy.....

legend
~ vibrato
b bend
r release
s slide
h hammer on
p pull off










Am C C7 F Fm G G7
variations - click chord images
Transpose chords:
Tuning:
Cool service:
View: Size:
A  A  A
Rating:
Layout:
  • Currently 2.9/5 Stars.
  • 1
  • 2
  • 3
  • 4
  • 5
 
Accuracy:
  • Currently 3.3/5 Stars.
  • 1
  • 2
  • 3
  • 4
  • 5
 
click stars to rate
Chordie recommends:
Get acoustic guitar lessons and electric guitar lessons at JamPlay.com
Songbook:
Login to add this song to your songbook
Support the artist
Preview/buy this song
MSN Music
Why this non-profit ad?

 
login to add comments/video/corrections