"yes"; ?> Nandito Lang Ako by Shamrock - guitar chords, guitar tabs and lyrics - chordie

Nandito Lang Ako

Shamrock

  Chords:    C  -- G --  Dm  --  Am (Do your own

e|--------|--0-------0---------|
B|--------|------13------13----|
G|--------|------12------12----|(Repeat this
D|--------|--------------------| many times)
A|--------|--------------------|
E|--------|--------------------|

 CG
 Nais kong iyong malaman 
 AmF
Ngunit di ko naman pwedeng sabihin
 CG
 Paano mo maiintindihan
 AmF
Kung di ko rin pwedeng aminin

BRIDGE:

 CGFG
      Ngunit kahit puno ng lihim ang aking pagkatao
 CGFG
      Maging ang buhay kong ito'y ibibigay sa iyo

CHORUS:

 CDmAm
 Tibay at lakas ng loob ang iaalay
 G
Para lang sa iyo
 CDm
 Nais kong malaman mo
 Am
May karamay ka
 G
Nandito lang ako

REAPEAT:
--- INTRO --(Kayo na bahala ilang ulit gawin)

VERSE:2

 CG
 Marunong din naman ako magmahal
 AmFC
Kahit lagi lang nasasaktan    
 CGAmF
 Ang tanging pangako ko ay tapat ang puso kong ito

REPEAT:
--- BRIGDE
--- CHORUS

BRIGDE:2

 AmFCG
      At kahit na magkaiba ang ating mundo
 AmFGG
      Pipilitin kong mapalapit sa iyo

SOLO:( not sure)...

 G
     .....................Holy Shred.......................
e|---------------------------------------------------------|
B|------------------------------------------------5-6-8-10-|
G|-------------------------------------------3-5-7---------|
D|--------------------------3-5-7-------3-5-7--------------|
A|-----------1-3-5-----3-5-7-----3-3-5-7-------------------|
E|----1-1-3-5-----3-5-7------------------------------------|

sa iyo.....................................................

 FAm
e|-----------------------------------------------------------|
B|-10b~====~=====~=======10brp8------------------------------|
G|-------------------------------9b===rp7---7--9b~~~~~~------|
D|-----------------------------------------------------------|
A|-----------------------------------------------------------|
E|-----------------------------------------------------------|


< ~ >
Dm PM--PM AH
e|--------------------------------------|
B|--------------------------------------|
G|-9h10p9----------9b--7~~~~------------|
D|---------7-9-10-----------------------|
A|--------------------------------------|
E|--------------------------------------|


NP
 G
e|-----------------------------------------------------------------------|
B|-----------------------------------------------------------------------|
G|-/3h5t7p5p3-/5h7t10p7p5-/10h12t14p12p10-/12h14t17p14p12h14p12-10-12p10-|
D|-----------------------------------------------------------------------|
A|-----------------------------------------------------------------------|
E|-----------------------------------------------------------------------|


BP
 CG
e|----------15-----------15---------------------------------------------|
B|-17b===r=======17b===r=====17b=r===17br=17brp15--12-13-12--15~~~~~----|
G|----------------------------------------------------------------------|
D|----------------------------------------------------------------------|
A|----------------------------------------------------------------------|
E|----------------------------------------------------------------------|


 Dm
e|-12--13--------12--13--15-/17b~=17~=~=~~~--------|
B|---------15--------------------------------------|
G|-------------------------------------------------|
D|-------------------------------------------------|
A|-------------------------------------------------|
E|-------------------------------------------------|


 Am
e|--13-17-15-13--------------------------|
B|-------------17-15-13------------------|
G|---------------------14-12-10----------|
D|------------------------------14-12-10-|
A|---------------------------------------|
E|---------------------------------------|


 C
e|-----------------------------------------------------|
B|-----------------------------------------------------|
G|-----------------------------------------------------|
D|-----------------------------------------------------|
A|-13-13-13-12-10--------------------------------------|
E|---------------13-13-13-12-10-\--8~~~~~~-------------|


REPEAT:
--- CHORUS: (2x)
--- INTRO : As OUTRO:(kayo na ang bahala)
Wag gawin ang INTRO chords.. Notice it..

OUTRO:
     Do Chords  : -- C -- G -- Am -- F --


Nandito lang ako... (2x)

End : -- C --

Tablature Legend:

h -- hammer on
p -- pull off
b -- bend
r -- bend release
=== -- bend hold or maintain
^ -- bend a little
v -- bend more, to previous bend
/,\ -- slide(toward, forward)
~ -- let ring
-- <>quick ?--something
AH -- Artificial Harmonic
TP -- Tap Harmonic
PH -- Pitch Harmonic
NH -- Natural Harmonic
PM -- Palm Muted
T -- Tap
t -- Use your picking hand to create pull-off's and hammer-on's
Tr -- Trill

Pick-Up Selector:

BP -- Bridge Pick-up
MP -- Middle Pick-up
NP -- Neck Pick-up

Tabbed by: Nazo Dela Reka

Email: nazo_dela_reka@yahoo.com
rpg_rockers@yahoo.com

Calinan Davao City, Philliphines


Am C Dm F G
variations - click chord images
Transpose chords:
Tuning:
Cool service:
View: Size:
A  A  A
Rating:
Layout:
  • Currently 3/5 Stars.
  • 1
  • 2
  • 3
  • 4
  • 5
 
Accuracy:
  • Currently 3/5 Stars.
  • 1
  • 2
  • 3
  • 4
  • 5
 
click stars to rate
Chordie recommends:
Learn to play this song & others via video guitar lessons at JamPlay.com
Songbook:
Login to add this song to your songbook
Support the artist
Preview/buy this song
MSN Music
Why this non-profit ad?

 
login to add comments/video/corrections