Chordie logo


Lullaby   Shawn Mullins



I haven't found a correct version of this song yet.  First, the tuning is not standard, 
is open G.  Im not going to tab the whole song but this should give an idea.  Listening 
the song will give an easy view on the rhythm and   changes.

Tuning: GGDGBD

Chords:
G: 000080
D: 770070
B: 440400
C: 550050
A: 220020

Note: The harmonic is on the 7th fret.
      PM-Palm Mute
      -Harmonic
       *-Accent
       h-hammer on

VERSE:
D--0-0-0--------0-0-0-0--0---0-x-x---0-0-0-0-0---|
B--8-8-8-----7-7-7-7--0---0-x-x---5-5-5-5-5---|
G--0-0-0-----0-0-0-0--0h4-4-x-x---0-0-0-0-0---|
D--0-0-0--------0-0-0-0--0---0-x-x---0-0-0-0-0---|
G--0-0-0--------7-7-7-7--4---4-x-4s5-5-5-5-5-5---|
G--0-0-0--------7-7-7-7--4---4-x-4s5-5-5-5-5-5---|
 PM PM *                 PM PM

NOTE:  The G and B chords are palm muted for two strums and then accented on the last, 
muted right after the accent.  Its hard to explain but listening to the song or watching 
should give an idea.

Chorus:

G-D-B-C
G-D-B-C
G-D-B-C-A-C

After the 3rd GDBC progression he does this:

D--0-0-0-0-0--0-0-0----0-0-0-0---|
B--2-2-2-2-3--3-3-2----5-5-5-5---|
G--0-0-0-0-0--0-0-0----0-0-0-0---|
D--0-0-0-0-0--0-0-0----0-0-0-0---|
G--2-2-2-2-2--2-2-2----5-5-5-5---|
G--2-2-2-2-2--2-2-2----5-5-5-5---|


Important: The song above is NOT stored on the Chordie server. The original song is hosted at www.guitaretab.com. Chordie works as a search engine and provides on-the-fly formatting. Chordie does not index songs against artists/composers will. To remove this song please click here.

This song is displayed as text-only. Transposing and tuning is only available for chordpro-songs.

Login - add to songbook

Rating click stars to rate

Layout
Accuracy

SHARE PAGE  




You need to log in to post comments

Shanewinterss (report)

Need Chords not tabs, can't read them