Guitar Tabs, Chords and Lyrics
Major upgrade!! After one year development the new version of Chordie is now online! Please give feedback.


Tentang Hidup  Sheila on 7

If you want to, you can tune your guitar one step down.
All right!
[E] [C#m] [B] 
 
 Eb---------------------------------------------------------------------
 Bb---------------------------------------------------------------------
 Gb------9-------9-------9--------9-------9--------9-------9-------9----
 Db------9-------9-------9--------9-------9--------9-------9-------9----
 Ab--7-7---7-7-7---7-7-7----7-7-7---7-----------------------------------
 Eb-----------------------------------9-9----9-9-9---9-7-7---7-7-7----(7)

Riff!
[E] [C#m] 
 
 Eb---------------------------------------------------------------------
 Bb---------------------------------------------------------------------
 Gb------9-------9-------9--------9-------9--------9-------9-------9----
 Db------9-------9-------9--------9-------9--------9-------9-------9----
 Ab--7-7---7-7-7---7-7-7----7-7-7---7-----------------------------------
 Eb-----------------------------------9-9----9-9-9---9-9-9---9-9-9-----9

Akhirnya semua terjadi juga
[E] [C#m] 
 
 Eb---------------------------------------------------------------------
 Bb---------------------------------------------------------------------
 Gb------9-------9-------9--------9-------9--------9-------9-------9----
 Db------9-------9-------9--------9-------9--------9-------9-------9----
 Ab--7-7---7-7-7---7-7-7----7-7-7---7-----------------------------------
 Eb-----------------------------------9-9----9-9----9-9-9---9-9-9-------

Yang kutakutan yang kuelakkan
Keresaha[A]n ini tak seharusnya t[G#m]erjadi
Seakan jur[F#m]ang tercipta untuk kita[A]
Riff!
S'lalu kucoba menghangatkanmu
Riff!
Dengan sebatang lilin di tengah badai ini
Akupun ta[A]k ingin kau meredup dan m[G#m]embeku
Dan lilin[F#m] ini segalanya yang tersisa[A]
Reff:
Coba beru[A]saha untuk lebih[G#m] mencintaiku
Aku 'kan[F#m] mencoba hal yang sama
Aku pun t[A]ak ingin meningga[G#m]lkan tempat ini
Apa yang ka[F#m]urasakan aku jug[B]a merasakan
Riff!
Bertahan sayang dengan do'a mu
Riff!
Kucoba bertanya pada Tuhanku
Percayalah [A]sayang ku tak ingi[G#m]n semuanya berakhir
Ku berusaha[F#m] untuk s'lalu di si[A]ni
 
 Eb------9-------------------------
 Bb-9-12---9----9------------------
 Gb----------11-------9------------ 2x
 Db----------------11----11---6/9~-
 Ab--------------------------------
 Eb--------------------------------

Reff:
Coba berusa[A]ha untuk lebih[G#m] mencintaiku
Aku 'kan menco[F#m]ba hal yang sama
Bentangkan mau[A]mu kita raih[G#m] semuanya
Apa yang ka[F#m]u inginkan aku jug[B]a memimpikan
 
 Eb-------------- |------------------- | -----------
 Bb-------------- |----------------12- | --------9--
 Gb----------11-- |-11-9-9-11-9-11---- 8x | -9--11-----
 Db-9-9-11-9----- |------------------- | -----------
 Ab-------------- |------------------- | -----------
 Eb-------------- |------------------- | ----------- fade out...

Rindukan[E]lah diriku s[C#m]elagi punya waktu
Hargaila[E]h diriku k[C#m]utahu engkau mam[E]pu
-end of tab

Important: The song above is NOT stored on the Chordie server. The original song is hosted at www.guitaretab.com. Chordie works as a search engine and provides on-the-fly formatting. Chordie does not index songs against artists'/composers' will. To remove this song please click here.

Text color:
Chord color:
Chord grids: 
Font size:    
Page size: 

A B C#m E F#m G#m
Rate #1 of 5 versions

Jango Player

Login - add to songbook

SHARE PAGE  




You need to log in to post comments