Chordie logo


Middle Of The Night Acoustic   Sherwood



Band : Sherwood
Song : Middle Of The Night (acoustic)
Tabbed By: Calum (afirock74@hotmail.com)
Tuning: Half step down

x   - Palm Mute
b   - Bend
b~  - Bend Up Then Down
h   - Hammer-On Directly After Note Before
p   - pull off

Intro:
eb|--------------|
Bb|-7-7--7-7-7-7-|
Gb|-7-7--7-7-7-7-|
Db|-x-x--x-x-x-x-|
Ab|-x-x--x-x-x-x-|
Eb|-7-7--7-7-7-7-|

Verse:
eb|----------------------------------------------------------3-3-3-3-3--3-3-3-3-3--|
Bb|-7-7--7-7-7-7--7-7-7-7--7-7-x-7-7--7-7-7-7--7-7-7-7--7-7--3-3-3-3-3--3-3-3-3-3--|
Gb|-7-7--7-7-7-7--7-7-7-7--7-7-x-7-7--7-7-7-7--7-7-7-7--7-7--x-x-x-x-x--x-x-x-x-x--|
Db|-x-x--x-x-x-x--x-x-x-x--x-x-x-x-x--x-x-x-x--x-x-x-x--x-x--x-x-x-x-x--x-x-x-x-x--|
Ab|-x-x--x-x-x-x--x-x-x-x--x-x-x-x-x--x-x-x-x--x-x-x-x--x-x--2-2-2-2-2--2-2-2-2-2--|
Eb|-7-7--7-7-7-7--7-7-7-7--7-7-x-7-7--7-7-7-7--7-7-7-7--7-7--3-3-3-3-3--0-0-0-0-0--|

Pre-Chorus:
eb|-3-3-3-3-3--3-3-3-3-3-----------------------|-3-3-3-3-3--3-3-3-3-3--0-0-0--2-2-2--|
Bb|-3-3-3-3-3--3-3-3-3-3-----------------------|-3-3-3-3-3--3-3-3-3-3--0-0-0--2-2-2--|
Gb|-x-x-x-x-x--x-x-x-x-x-------11-11-11-7-9-7--|-x-x-x-x-x--x-x-x-x-x--2-2-2--3-3-3--|
Db|-x-x-x-x-x--x-x-x-x-x--9-9--x--x--x--x-x-x--|-x-x-x-x-x--x-x-x-x-x--2-2-2--4-4-4--|
Ab|-2-2-2-2-2--2-2-2-2-2--9-9--9--9--9--5-7-5--|-2-2-2-2-2--2-2-2-2-2--0-0-0--4-4-4--|
Eb|-3-3-3-3-3--0-0-0-0-0--7-7------------------|-3-3-3-3-3--0-0-0-0-0----------------|

Chorus:
eb|-3-3-3-3-3-------------5-5-5-5-5-5-5-5-5-5-5-5---|
Bb|-3-3-3-3-3--7-7-7-7-7--5-5-5-5-5-5-5-5-5-5-5-5---|
Gb|-x-x-x-x-x--7-7-7-7-7--6-6-6-6-6-6-7-7-7-6-6-6---|
Db|-x-x-x-x-x--x-x-x-x-x--7-7-7-7-7-7-0-0-0-7-7-7---|
Ab|-2-2-2-2-2--x-x-x-x-x----------------------------|
Eb|-3-3-3-3-3--7-7-7-7-7----------------------------|

Bridge:
eb|-3-3-3-3-3--3-3-3-3-3---------------------------|
Bb|-3-3-3-3-3--3-3-3-3-3--7-7-7-7-7-7-7-7-7-7-7-7--|
Gb|-x-x-x-x-x--x-x-x-x-x--7-7-7-7-7-7-7-7-7-7-7-7--|
Db|-x-x-x-x-x--x-x-x-x-x--x-x-x-x-x-x-x-x-x-x-x-x--|
Ab|-2-2-2-2-2--2-2-2-2-2--x-x-x-x-x-x-x-x-x-x-x-x--|
Eb|-3-3-3-3-3--0-0-0-0-0--7-7-7-7-7-7-7-7-7-7-7-7--|

Bridge 2:
eb|-3-3-3-3-3--3-3-3-3-3--0-0-0-0-0--2-2-2--0-0-0--|
Bb|-3-3-3-3-3--3-3-3-3-3--0-0-0-0-0--3-3-3--0-0-0--|
Gb|-x-x-x-x-x--x-x-x-x-x--2-2-2-2-2--2-2-2--2-2-2--|
Db|-x-x-x-x-x--x-x-x-x-x--2-2-2-2-2--0-0-0--2-2-2--|
Ab|-2-2-2-2-2--2-2-2-2-2--0-0-0-0-0---------0-0-0--|
Eb|-3-3-3-3-3--0-0-0-0-0---------------------------|

End On:
eb|---------------------------|
Bb|---------------------------|
Gb|------11-11-11-7-9-7-------|
Db|-9-9--x--x--x--x-x-x--9-9--|
Ab|-9-9--9--9--9--5-7-5--9-9--|


Important: The song above is NOT stored on the Chordie server. The original song is hosted at www.guitaretab.com. Chordie works as a search engine and provides on-the-fly formatting. Chordie does not index songs against artists/composers will. To remove this song please click here.

This song is displayed as text-only. Transposing and tuning is only available for chordpro-songs.

Login - add to songbook

Rating click stars to rate

Layout
Accuracy

SHARE PAGE  




You need to log in to post comments