Guitar Tabs, Chords and Lyrics


Light In Your Eyes   Sheryl Crow



standard tuning
capo 2nd fret
      &
on this song and many others by sheryl you can use a slider which gives you more a 
feel but only really for the solo and the little tab bit at the begining

intro:

e-------------------------------------|  all of these notes are slides
b-10-8-7-5-7---10-8-7-5-7-8-7-2-3-----|
g-------------------------------------|
d-------------------------------------|
a-------------------------------------|
e-------------------------------------|

backing chords for intro:

e-0-0-----------|
b-2-3-x3--------|
g-2-2-----------|
d-2-0-----------|
a-0-------------|
e---------------|

verse 1:

e-0-0-0-0-0-2-0-0-------|
b-2-3-2-3-0-2-0-2-------|
g-2-2-2-2-0-0-0-2-------|
d-2-0-2-0-2-0-2-2-------|
a-0---0---2-2-2-0-------|
e---------0-3-0---------|

this plays twice but when you play the em and g there is another guitar that does a 
bit that goes like this

e----------3-5---------------------|
b-8-7-5-3--3-3----x2--8-7-5-3-3----|
g-----------------------------2----|
d----------------------------------|
a----------------------------------|
e----------------------------------|

chorus:

e-0-0----0-2-0--0-0-------|
b-0-2-x2-0-3-2--0-2-x2----|
g-0-2----0-4-2--0-2-------|
d-2-2----2-4-2--2-2-------|
a-2-0----2-2-0--2-0-------|
e-0------0------0---------|

verse 2:

same as verse 1

chorus 2:

same as chorus 1

interlude/break/ watever ya wanna call it:

e-2-0-3-0-2-0-3-0----|
b-3-2-3-2-3-2-3-0----|
g-4-2-0-2-4-2-0-0----|
d-4-2-0-2-4-2-0-2----|
a-2-0-2-0-2-0-2-2----|
e-----3-------3-0----|

solo:

e------------------------------------------------------------|
b-7-5-3-5-7-8-7--7-5-3-5-3-----3------7-5-3-5-7-8-7-5-7-3----|
g--------------------------4-4---4-2-------------------------|
d------------------------------------------------------------|
a------------------------------------------------------------|
e------------------------------------------------------------|

backing chords for solo:

a, d, a, d, em, g, a, d

just guitar bit:

a, d and then 2nd half of verse 1

chorus 3:

same as chorus 1

extra chorus bit:

em, g, bm, a x2 em, a x2 and then times this hole bit by 2

and thats the end :)



Important: The song above is NOT stored on the Chordie server. The original song is hosted at www.guitaretab.com. Chordie works as a search engine and provides on-the-fly formatting. Chordie does not index songs against artists'/composers' will. To remove this song please click here.

This song is displayed as text-only. Transposing and tuning is only available for chordpro-songs.

Login - add to songbook

Rating click stars to rate

Layout
Accuracy

SHARE PAGE  




You need to log in to post comments