Guitar Tabs, Chords and Lyrics


Members Only  Sheryl Crow

  [Am]          [C]          [G]           [Em]         [D]                                                                   
E-0---------0---------3-----------0-------2-------
B-1---------1---------3-----------0-------3-------
G-2---------0---------0-----------0-------2-------
D-2---------2---------0-----------2-------0-------
A-0---------3---------2-----------2-------0-------
E-0---------3---------3-----------0-------0-------


Opening: G acoustic riff (8 times w/ lead guitar coming in)
G acoustic riff (4 times w/ big drum kick added)
(Changes rythm, same beat, with cool lead guitar signature riff)
[G]Verse 1[G]:       [C]        [C]
[G]Uncle larry's hooked on [C]ice again
G c Am
He seems to be stuck in the 80's
(Am) C* G Am
He wears his member's only jacket
[Am]Cause he thinks it t[C]urns on all the la[G]dies

Chorus:
[D]And all the white folks shake th[Em]eir asses
D C* G
Looking for the two and four
[C]I'll have mine in martini gla[G]sses
[Em]Cause i can't ta[D]ke it anymore   [G]
[G](cool l[G]ead riff[C])     [C]

Verse 2:
[G]These are the days of empty kit[C]chens
[G]The rise and fall of MAry Ellen's ha[C]irdo [Am]
[Am]I think she's f[C]ound a new relig[G]ion [Am]
[Am]Studying the Kab[C]alah in her J. Cr[G]ew

Chourus

[D]And all the rich kids sh[Em]ake their asses
D C* G
Looking for the two and four
[C]Well I'll have mine with blackstrap mo[G]lasses
[Em]Cause I can't t[D]aste it anymore  [C]
[C]No I can't t[D]aste it anym[G]ore
Break:
[G](cool l[G]ead rif[C]f)    [C]
[D](solo over[G] same chords as first verse segment)

Verse 3:
[G]My friend Greg says it's [G]all good
[G]As the eastern seaboard's blown a[C]way  [Am]
[Am]Now everything is going [C]half-pri[G]ce   [Am]
[Am]So look at all the money[G] we saved

Chorus
[D]And all the politicians [Em]shake their asses
[D]Looking for the backdo[G]or
[C]I'll just be hanging out with the la[G]sses
[Em]Cause they don't like th[D]e boys no m[C]ore
[C]No and I can't t[D]ake it anymoe  [G]

[G](cool[G] lead[C] riff)[C]
(end cold on G)

Tablature Riff by Daniel Bromley (dan@dbromley.freeserve.co.uk)
H= hammer on
P= Pull off

The acoustic riff:
E:---3---1p0---0----------
B:-----3-----3----3-------
G:------------------------
D:------------------------
A:------------------------
E:-3----------------------


or
E:---3---1p0--------------
B:-----3------3h5p3-------
G:------------------------
D:------------------------
A:------------------------
E:-3----------------------


The electric riff (listen to the cd to get timing and accents right)

E:-5-3-2-3--55-3--2-3--5-3-2-3-0---
B:---------------------------------
G:---------------------------------
D:---------------------------------
A:---------------------------------
E:---------------------------------


A lower tone version (mainly for higher pitched guitars (such as the one on the track).)

E:---------------------------------
B:---------------------------------
G:-2-0---0--22-0----0--2-0---0-----
D:-----4----------4--------4---2---
A:---------------------------------
E:---------------------------------


Tabbed originally by Rob Anderson (rjand@ix.netcom.com)
Revised by David Ribeiro (Sherly Crow- Paradise)

Hope you guys enjoy it, it took for ever to find and even longer to type -- cindy

Important: The song above is NOT stored on the Chordie server. The original song is hosted at www.guitaretab.com. Chordie works as a search engine and provides on-the-fly formatting. Chordie does not index songs against artists'/composers' will. To remove this song please click here.

Text color:
Chord color:
Chord grids: 
Font size:    
Page size: 

Am C D Em G
variations - click chord images

Login - add to songbook

Transpose chords

Tuning

Rating click stars to rate

Layout
Accuracy

SHARE PAGE  




You need to log in to post comments