Guitar Tabs, Chords and Lyrics


The Fisrt Cut Is The Deepest   Sheryl Crow



OK guys this is my first post and Im still learning, but this version is the more 
than any Ive seen so far.  Rate it and let me know what you think....   Fonda and James

Intro

----0---2h3--23--0---------|
--3---------------3--------|
2--------------------------|
---------------------------|
---------------------------|
---------------------------|
I would have given you all of my heart......


-2--5--7--5-5--3-3-2-3-0--|
--------------------------|
--------------------------|
--------------------------|
--------------------------|
--------------------------|
but theres someone whose torn it apart...


do Inrtro again for...

And he's taken just all that I have.......


--2--0---------2-0----0---|
-------3-5----------3---3-|
--------------------------|
--------------------------|
--------------------------|
If  you wannn try to love again....

Chords are.......

  D              A          G             A

--2-2-2-------------------3-3-3----------------------|
--3-3-3--------3-3-3--------------------3-3-3--------|
--2-2-2--------3-3-3--------------------3-3-3--------|
---------------3-3-3--------------------3-3-3--------|       Repeated over and over
--------------------------2-2-2----------------------|


Important: The song above is NOT stored on the Chordie server. The original song is hosted at www.guitaretab.com. Chordie works as a search engine and provides on-the-fly formatting. Chordie does not index songs against artists'/composers' will. To remove this song please click here.

This song is displayed as text-only. Transposing and tuning is only available for chordpro-songs.

Login - add to songbook

Rating click stars to rate

Layout
Accuracy

SHARE PAGE  




You need to log in to post comments