Hate Boys

Shihad

-------------------------------------------------------------------------------

-------------------------------------------------------------------------------
e|---------------------------------------------------------|
B|---------------------------------------------------------|
G|--------5-------------3-----------5------10-10-10-10-8---|
D|--------5-------------3-----------5------10-10-10-10-8---|
A|-1/3-3-(3)---1-3-1-3-(1)---1/3-3-(3)---1-8--8--8--8--6---|
E|-----------------------------------------8--8--8--8--6---|

 CBF
So lets hear it for the salt of the earth
 CBF
I guess your narrow sight has seen you right since birth
 CBF
C'mon, Raise your glass, Lets have some noise
 CBF
Release your hate boys     

Verse 2

e|---------------------------------------------------------|
B|---------------------------------------------------------|
G|--------5-------------3-----------5------10-10-10-10-8---|
D|--------5-------------3-----------5------10-10-10-10-8---|
A|-1/3-3-(3)---1-3-1-3-(1)---1/3-3-(3)---1-8--8--8--8--6---|
E|-----------------------------------------8--8--8--8--6---|


Oh, work is over, it's time to cut loose. The nights alive, The nights alive
Time to pay your dues to your misplaced frustrations
Got a rant from a prat, Sitting there chewing his fat
He made it clear I wasn't his mate (Didn't concern me at all)

Bridgy thing: Same C-B-F chord progression as the Chorus x4

Then the following with just the bass (there's actually a bit of faint lead in there
I can't be bothered transcribing.)

The nights alive, The nights alive
The nights alive, Yeah right
I can't believe the bother your giving me

Verse 3

e|---------------------------------------------------------|
B|---------------------------------------------------------|
G|--------5-------------3-----------5------10-10-10-10-8---|
D|--------5-------------3-----------5------10-10-10-10-8---|
A|-1/3-3-(3)---1-3-1-3-(1)---1/3-3-(3)---1-8--8--8--8--6---|
E|-----------------------------------------8--8--8--8--6---|


What have we here then? Some red-neck pissing his hard earned money down his throat
Just to let off some steam built up from a hard weeks work
Like the weekend and the weekend before. With an excuse to shout out to the world just
a bigot he is
Just what a bigot he is

Chorus

 CBF
So lets hear it for the salt of the earth
 CBF
I guess your narrow sight has seen you right   
 CBF
C'mon, Raise your glass, Lets have some noise
 CBF
Release your hate boys     
 CBF
Release your hate boys     
 CBF
Release your hate boys     
 CBF
Release your hate          
 CBF

| / slide up
| \ slide down
| h hammer-on
| p pull-off
| ~ vibrato
| + harmonic
| x Mute note
===============================================================================


B C F
variations - click chord images
Transpose chords:
Tuning:
Cool service:
View: Size:
A  A  A
Rating:
Layout:
  • Currently 3.7/5 Stars.
  • 1
  • 2
  • 3
  • 4
  • 5
 
Accuracy:
  • Currently 4.8/5 Stars.
  • 1
  • 2
  • 3
  • 4
  • 5
 
click stars to rate
Chordie recommends:
Learn how to play guitar at JamPlay.com
Songbook:
Login to add this song to your songbook
Support the artist
Preview/buy this song
MSN Music
Why this non-profit ad?

 
login to add comments/video/corrections