Guitar Tabs, Chords and Lyrics


Young Pilgrim  Shins

e|-------2-----2-2---|


B|---3-----3---3-3---|


G|---2-2-----2-2-2---|

D|---0---------0-0---|
A|---0---------0-0---|
E|-------------------|
[D]  [Bb]   [G]  [D]  [Bb]   [C]  [D]  [F]  [A]                   
[D]A cold and [Bb]wet No[G]vember dawn    [D]
And there [Bb]are no barking [C]sparrow[D]s
Just [F]emptiness to dwell u[A]pon.   [D]
I fell in[Bb]to a [G]winter slide      [D]
And ended [Bb]up the kind of [C]kid who goes down [D]chutes too narrow
Just [F]sneaking out my measly [A]pies.
But [G]I learned [D]fast how to[A] keep my [D]head up 'cause I
[G]Know there [D]is this [F]side of [A]me that
[G]Wants to [D]grab the [A]yoke from the [D]pilot and just
[G]Fly the [D]whole mess [F]into the [A]sea.
[D]Another [Bb]slow train [G]to the coast         [D]
Some brand new [Bb]gory art from [C]way on high[D]
I [F]sink and then I swim all [A]night.       [D]
I watch the [Bb]ice melt [G]on the glass       [D]
While the [Bb]eloquent young [C]pilgrims pass  [D]
And [F]leave behind their trail
Im[C]ploring us all not to [A]fail.
Of [G]course I was [D]raised to[A] gather [D]courage from those
[G]Lofty [D]tales so [F]tried and [A]true, but
[G]If you're [D]able[A] I'd sug[D]gest it 'cause this
[G]Modern [D]thought can get the [F]best of [A]you.
[Bm]This rather [D]simple epitaph can [G]save your [A]hide, your [G]falling [A]mind
[Bm]Fate isn't [D]what we're up against; there's [G]no de[A]sign, no [G]flaws to [A]find
There's [G]no de[A]sign, no [G]flaws to [A]find.
Note:
_________________________________________
True picking for the G A G A part:
e|---------------------0--0-0-0-0-------|
B|---------------------2--2-2-3-3/5-----|
G|---------------2-----2--2-2-2-2/4-----|
D|---------0---2-------2--2-2-2-2-------|
A|-------2---0-------2-0--0-0-0-0-------|
E|-----3-----------3--------------------|

_________________________________________


The following solo (Played over verse progression ending in F C A):
e|--------------------------------------------------------|
B|---------------------------------------------10-7-------|
G|-----10p9-7---/7---------------10p9-7---/7--------------|
D|-----------10---------7--------------10----7------7-----|
A|-----------------8-10-----------------------------------|
E|--------------------------------------------------------|
e|--------------------------------------------------------|
B|--------------------------------------------------------|
G|-----9h10-9-7------9h10-9-7-----------------------------|
D|-------------10------------10-/12-7---------------------|
A|--------------------------------------------------------|
E|--------------------------------------------------------|


But [G]I learned [D]fast how to[A] keep my [D]head up 'cause I
[G]Know I [D]got this [F]side of [A]me that
[G]Wants to [D]grab the [A]yoke from the [D]pilot and just
[G]Fly the [D]whole mess [F]into the [A]sea.  [D]

Important: The song above is NOT stored on the Chordie server. The original song is hosted at www.guitaretab.com. Chordie works as a search engine and provides on-the-fly formatting. Chordie does not index songs against artists'/composers' will. To remove this song please click here.

Text color:
Chord color:
Chord grids: 
Font size:    
Page size: 

A Bb Bm C D F G
variations - click chord images

Login - add to songbook

Transpose chords

Tuning

Rating click stars to rate

Layout
Accuracy

SHARE PAGE  




You need to log in to post comments