Guitar Tabs, Chords and Lyrics


Turn On Me   Shins



-------------------------------------------------------------------------------
			     Turn On Me - The Shins
-------------------------------------------------------------------------------
Tabbed by:xx_mclovin_xx
Email:

Tuning:eadgbe

other one was good but didn't have the solo

Intro
E|-----------------------------------------|
B|-----------------------------------------|
G|-------0---------------------------------|
D|---2h3-----2h3-2----2----------0---------|
A|-3-------3--------3---0-3---2h3---2h3-2--|
E|---------------------------3-----3-------|x2

Verse
E|-----------------------------------------|
B|-----------------------------------------|
G|-------0---------------------------------|
D|---2h3-----2h3-2----2----------0---------|
A|-3-------3--------3---0-3---2h3---2h3-2--|
E|---------------------------3-----3-------|x1

E|----------------------------------|
B|----------------------------------|
G|-------0--------------------------|
D|---2h3-----2h3-2--------0---------|
A|-3-------3----------2h3----2h3-2--|
E|-------------------3------3-------|x1

Chorus
*Strumming not shown*
E|-1-0-3-0-3-|
B|-1-1-3-1-3-|
G|-2-0-0-2-0-|
D|-3-2-0-2-0-|
A|-3-3-2-0-2-|
E|-1-0-3-0-3-|x3

For the Fourth Time
E|-1-0-3-1-3-|
B|-1-1-3-3-3-|
G|-2-0-0-2-0-|
D|-3-2-0-0-0-|
A|-3-3-2-0-2-|
E|-1-0-3-0-3-|x1

Verse 2
E|-----------------------------------------|
B|-----------------------------------------|
G|-------0---------------------------------|
D|---2h3-----2h3-2----2----------0---------|
A|-3-------3--------3---0-3---2h3---2h3-2--|
E|---------------------------3-----3-------|x1

E|----------------------------------|
B|----------------------------------|
G|-------0--------------------------|
D|---2h3-----2h3-2--------0---------|
A|-3-------3----------2h3----2h3-2--|
E|-------------------3------3-------|x3

Chorus 2
*Strumming not shown*
E|-1-0-3-0-3-|
B|-1-1-3-1-3-|
G|-2-0-0-2-0-|
D|-3-2-0-2-0-|
A|-3-3-2-0-2-|
E|-1-0-3-0-3-|x3

For the Fourth Time
E|-1-0-3-(1)-(3)-|
B|-1-1-3-(3)-(3)-|
G|-2-0-0-(2)-(0)-|
D|-3-2-0-(0)-(0)-|
A|-3-3-2-(0)-(2)-|
E|-1-0-3-(0)-(3)-|x1
*Notes in parenthesis, repeat three times*

Solo
Guitar 1
E|-------------------------------------------------------------------|
B|-------------------------------------------------------------------|
G|-------------------------------------------------------------------|
D|-------------------------------------------------------------------|
A|-5/1010101010101010101010101010101010101010101010101010\55555555555|
E|-3/8-8-8-8-8-8-8-8-8-8-8-8-8-8-8-8-8-8-8-8-8-8-8-8-8-8-\33333333333|x4

Guitar 2
Comes in after Guitar 1 plays riff twice
E|-----3---3-------3---3-----------------------|
B|-5-----------5-------------------------------|
G|---5---5---5---5---5---5-4h5h7-0-0-4h5h7-0-0-|
D|---------------------------------------------|
A|---------------------------------------------|
E|---------------------------------------------|

E|----3---3--------3--------------------------------|
B|-5-----------5-----6-5-3----------------------6-5-|
G|---5---5---5---5--------5-4h5h7-4h5h7-0-4-5-7-7-5-|
D|--------------------------------------------------|
A|--------------------------------------------------|
E|--------------------------------------------------|

Chorus 3
*Strumming not shown*
E|-1-0-3-0-3-|
B|-1-1-3-1-3-|
G|-2-0-0-2-0-|
D|-3-2-0-2-0-|
A|-3-3-2-0-2-|
E|-1-0-3-0-3-|x3

For the Fourth Time
E|-1-0-3-(1)-(3)-|
B|-1-1-3-(3)-(3)-|
G|-2-0-0-(2)-(0)-|
D|-3-2-0-(0)-(0)-|
A|-3-3-2-(0)-(2)-|
E|-1-0-3-(0)-(3)-|x1
*Notes in parenthesis, repeat three times*

The End


| /  slide up
| \  slide down
| h  hammer-on
| p  pull-off
| ~  vibrato
| +  harmonic
| x  Mute note


Important: The song above is NOT stored on the Chordie server. The original song is hosted at www.guitaretab.com. Chordie works as a search engine and provides on-the-fly formatting. Chordie does not index songs against artists'/composers' will. To remove this song please click here.

This song is displayed as text-only. Transposing and tuning is only available for chordpro-songs.

Login - add to songbook

Rating click stars to rate

Layout
Accuracy

SHARE PAGE  




You need to log in to post comments