Guitar Tabs, Chords and Lyrics


Daddys Farm   Shooter Jennings



Intro Riff:
E----------------------------------------------------------|
B----------------------------------------------------------|
G----------------------------------------------------------|
D----------------------------------------------------------|
A--2-2----------2-2----------2-2----------2-2--------------|
E--0-0----------0-0----------0-0----------0-0--------------|

E----------------------------------------------------------|
B----------------------------------------------------------|
G----------------------------------------------------------|
D--------------------------------0-7b-5--------------------|
A------5-7---------5-6-7-----5-7--------7-5----------------|
E--0-0-----0-5-6-7-------0-0-------------------------------|

E----------------------------------------------------------|
B----------------------------------------------------------|
G----------------------------------------------------------|
D--------------------------------0-7b-5--------------------|
A------5-7---------5-6-7-----5-7--------7-5----------------|


Important: The song above is NOT stored on the Chordie server. The original song is hosted at www.guitaretab.com. Chordie works as a search engine and provides on-the-fly formatting. Chordie does not index songs against artists'/composers' will. To remove this song please click here.

This song is displayed as text-only. Transposing and tuning is only available for chordpro-songs.

Login - add to songbook

Rating click stars to rate

Layout
Accuracy

SHARE PAGE  




You need to log in to post comments