Chordie logo

George Romero Will Be At Our Wedding   Showbread



band-showbread
song-george romero will be at our wedding
album-age of reptiles

This is me second showbread tab. there new cd (age of reptiles)
is simply amazing, i really hope you guys pick one up...:)

tuning-standard (eadgbe)

Intro
Guitar 1
E------------------------------------------------------------------------|
B------------------------------------------------------------------------|
G--77-7-7-7--------------------------------------------------------------|
D--77-7-7-7-88-8-8-8--55-5-5---88--7-7-7-7-------------------------------|
A--55-5-5-5-88-8-8-8--55-5-5---88--7-7-7-7-------------------------------|
E-----------66-6-6-6--33-3-5---66--5-5-5-5-------------------------------|

Guitar 2 comes in on (0:07) w/ the intro.

Chorus pt 1
guitar 1 and 2 (0:40)
E-----------------------------|------------------------------------------|
B-----------------------------|------------------------------------------|
G-----------------------4-----|----------------7-----8----10-------------|x2
D--5------8------4------4-x8--|--5------8------7-x4--8-x4-10-x8----------|
A--5-x8---8-x8---4-x8---2-----|--5-x8---8-x8---5-----6-----8-------------|
E--3------5------2------------|--3------5--------------------------------|

chorus pt 2 (1:03)
guitar 1 and 2
E---------------------------------------|
B---------------------------------------|
G---7-----------------------------------|
D---7-x16---5------8------7-------x2----|
A---5-------5-x16--8-x16--7-x16---------|
E-----------3------6------5-------------|

Repeat intro
Intro
Guitar 1 and 2
E------------------------------------------------------------------------|
B------------------------------------------------------------------------|
G--77-7-7-7--------------------------------------------------------------|
D--77-7-7-7-88-8-8-8--55-5-5---88--7-7-7-7-------------------------------|
A--55-5-5-5-88-8-8-8--55-5-5---88--7-7-7-7-------------------------------|
E-----------66-6-6-6--33-3-5---66--5-5-5-5-------------------------------|

verse 2 has a little fill from guyitar 2
guitar 2
Intro
Guitar 1
E-----------------|-----------------------|
B-----------------|-----------------------|
G-----------------|----------10---8-------|x2
D----7-8-7-10--x3-|----7-8-7----7---7-----|
A--5--------------|--5--------------------|
E-----------------|-----------------------|

repeat chorus
Chorus pt 1
guitar 1 and 2 
E-----------------------------|------------------------------------------|
B-----------------------------|------------------------------------------|
G-----------------------4-----|----------------7-----8----10-------------|x2
D--5------8------4------4-x8--|--5------8------7-x4--8-x4-10-x8----------|
A--5-x8---8-x8---4-x8---2-----|--5-x8---8-x8---5-----6-----8-------------|
E--3------5------2------------|--3------5--------------------------------|

chorus pt 2 
guitar 1 and 2
E---------------------------------------|
B---------------------------------------|
G---7-----------------------------------|
D---7-x16---5------8------7-------x2----|
A---5-------5-x16--8-x16--7-x16---------|
E-----------3------6------5-------------|

bridge is piano
then come in w/ chorus pt 2 (2:39)
chorus pt 2 
guitar 1 and 2
E---------------------------------------|
B---------------------------------------|

G---7-----------------------------------|
D---7-x16---5------8------7-------x2----|
A---5-------5-x16--8-x16--7-x16---------|
E-----------3------6------5-------------|

Outro
Guitar 1
E------------------------------------------------------------------------|
B------------------------------------------------------------------------|
G--77-7-7-7--------------------------------------------------------------|
D--77-7-7-7-88-8-8-8--55-5-5---88--7-7-7-7-------------------------------|
A--55-5-5-5-88-8-8-8--55-5-5---88--7-7-7-7-------------------------------|
E-----------66-6-6-6--33-3-5---66--5-5-5-5-------------------------------|


thanks for reading my tab...even if it sucked...:)



Important: The song above is NOT stored on the Chordie server. The original song is hosted at www.guitaretab.com. Chordie works as a search engine and provides on-the-fly formatting. Chordie does not index songs against artists/composers will. To remove this song please click here.

This song is displayed as text-only. Transposing and tuning is only available for chordpro-songs.

Login - add to songbook

Rating click stars to rate

Layout
Accuracy

SHARE PAGE  

You need to log in to post comments