""; ?> Age Of Insects by Showbread - guitar chords, guitar tabs and lyrics - chordie

Age Of Insects

Showbread

 EmGC2A5
-----------0-----0---------3----3-------3--3-----------0-----|
-----------0-----0---------3----3-------0--0-----------0-----|
-----------0-----0---------0----0-------0--0-----------2-----|
-----------2-----2---------0----0---2---2--2-------2---2-----|
-------2---2-----2-----2---2----2-3-----3--3-----0-----0-----|
---0-------0-----0--3------3----3----------------------------|


 EmGC2
-----------0-----0---------3----3--0~~~~~~~~~~~~~~~~~~~~~~~--|
-----------0-----0---------3----3--3~~~~~~~~~~~~~~~~~~~~~~~--|
-----------0-----0---------0----0--0~~~~~~~~~~~~~~~~~~~~~~~--|
-----------2-----2---------0----0--2~~~~~~~~~~~~~~~~~~~~~~~--|
-------2---2-----2-----2---2----2--3~~~~~~~~~~~~~~~~~~~~~~~--|
---0-------0-----0--3------3----3----------------------------|


Verse 1:
 EmGC2A5
walk the world on insect legs beneath an unforgiving sun
 EmGC2Em
 Eat the dirt throughout my days, born on dirt and dirt I come undone
 GC2A5
Messiah born in Bethlehem won't find me lying dead
 EmGC2
The world's too big for him to see me or hear the things I've said

Chorus: (Palm Muted) (Power Chords)
 EmGCA
 Hold me to you as I pray, Take the rest of the world away
 EmGCA
My blood runs warm because of you, The scales fall out of my eyes

Verse 2:
 EmGC2A5
laughed in the keep of a man with a rose my mandibles are caked in trash
 EmGC2
 Thought you wouldn't recognize me, in the black of soot and ash
 EmGC2A5
 Don't turn deaf into my voice, but one thing I want you to know:
 EmGC2
 I have always loved you though my life has never said so

Chorus: (Palm Muted) (Power Chords)
 EmGCA
 Hold me to you as I pray, Take the rest of the world away
 EmGCA
My blood runs warm because of you, The scales fall out of my eyes
 EmGCA
 Hold me to you as I pray, Take every other thing away
 EmGCA
My heart is breaking out for you, The scales are out of my eyes

Bridge:
 A5CBA5CB
----------------------------------------|
----------------------------------------|
----------------------------------------|
--7-7-7-7-10-10-10-9-7-7-7-7-10-10-10-9-|
-0-0-0-0-0--0--0--0-0-0-0-0-0--0--0--0--|
----------------------------------------|


 A5EmA5F#D
-----------------------------------------------------------|
-----------------------------------------------------------|
--------------------------------------------------77777777-|
--7-7-7-9-9-9-9-9-7-7-7-7-7-7-7-7-7-7-7-7-7-7-7-7-77777777-|
-0-0-0-0-7-7-7-7-0-0-0-0-9-9-9-9-9-9-9-9-5-5-5-5--55555555-|
-----------------------------------------------------------|


Outro:
 DA5
love you Lord, and I lift my voice
 F#Bm
To worship you, Oh, my soul rejoice
 E/BB/F#
Take joy my King in what you hear
 E/BE5
May it be a sweet, sweet sound in your ear
(let ring)


A A5 B B/F# Bm C C2 D E/B E5 Em F# G
variations - click chord images
Transpose chords:
Tuning:
Cool service:
View: Size:
A  A  A
Rating:
Layout:
  • Currently 3.2/5 Stars.
  • 1
  • 2
  • 3
  • 4
  • 5
 
Accuracy:
  • Currently 2.4/5 Stars.
  • 1
  • 2
  • 3
  • 4
  • 5
 
click stars to rate
Chordie recommends:
Get acoustic guitar lessons and electric guitar lessons at JamPlay.com
Songbook:
Login to add this song to your songbook
Support the artist
Preview/buy this song
MSN Music
Why this non-profit ad?

 
login to add comments/video/corrections