eToCache5 = ""; ?> Folkevognen by Shubidua - guitar chords, guitar tabs and lyrics - chordie

Folkevognen

Shubidua

E------10-9----10-9----9-|------10-9----10-9----9-|

B-----------10------10---|-----------10------10---|
G------------------------|------------------------|
D------------------------|------------------------|
A------------------------|------------------------|
E------------------------|------------------------|

 bas
G------------------------|------------------------|
D-------0--2--5--2--0--2-|-------0--2--5--2--0--2-|
A-0--0-------------------|-0--0-------------------|
E------------------------|------------------------|


VERSE 1:

 A
G--------------------------------|--------------------------------|
D--------------------------------|--------------------------------|
A--------------------------------|-------------------------------4|
E-5-5-5-5-5-5-5-5-5-5-5-5-5-5-5-5|-5-5-5-5-5-5-5-5-5-5-5-5-5-5-5--|


 DA
G--------------------------------|--------------------------------|
D--------------------------------|--------------------------------|
A-5-5-5-5-5-5-5-5-5-5-5-5-5-5-5-4|--------------------------------|
E--------------------------------|-5-5-5-5-5-5-5-5-5-5-5-5-5-5-5-3|


 F#mEA
G----------------------------------|--------------------------------|
D----------------------------------|--------------------------------|
A----------------------------------|--------------------------------|
E-2-2-2-2-2-2-2-1-0-0-0-0-0-0-0-0/4|-5-5-5-5-5-5-5-5-5-5-5-5-5-5-5-5|


(guitar)

 A7AA7A
Hvis jeg havde penge, s? sku I bare se
 A7AA7A
s? gik der ikke l?nge f?r jeg havde en VW
 D
nu vil jeg leve af torskerogn
 A
til jeg f?r r?d til en folkevogn
 F#m
for jeg vil ha' mig en folkevogn
E A(intro)
og fise op og ned af vejen

VERSE 2:

 A7AA7A
Det var egentlig min dame der satte mig i sving
 A7AA7A
da hun s? en reklame med Police-bassisten Sting
 D
hvor han k?rer i folkevogn
 A
med persianer og mikroovn
 F#m
nu vil hun ha' s?'n en folkevogn
E A(intro)
og fise op og ned ad vejen

SOLO 1:

Bassen spiller det samme som i verset
Guitaren improviserer over akkorderne i verset:
|A |A |D |A |F#m E |A |

VERSE 3:

 A7AA7A
 Hitler fik ideen - folket sagde : Heil
 A7A
de styrtede ud til fronten
 A7A
men der var sket en fejl
 D
for der stod sgu' ingen folkevogn
 A
han havde lovet dem en folkevogn
 F#m
de havde gl?det sig til en folkevogn
 EA
og fise ned ad autobahn

VERSE 4:

 A7AA7A
 Ikke et rugbr?d, ikke en GTI
 A7AA7A
men den lille grimme boble med en boksemotor i
 D
for det er den rigtige folkevogn
 A
n?r familien skal en tur i skoven
 F#m
og jeg vil ha' mig en folkevogn
 EA
og fise op og ned ad vejen

SOLO 2:

|A |A |D |A |F#m E |A |

VERSE 5:

 A7AA7A
 Hvis vi havde penge, s? sku' I bare se
 A7AA7A
s? gik der ikke l?nge f?r vi havde en VW
 D
og det er ikke nogen lille vogn
 A
der' plads til 6 i en folkevogn
 F#m
hvis man bl?ser p? f?rdselsloven
 EA
og fiser op og ned ad vejen

 F#m
hvis man bl?ser p? f?rdselsloven
 EA
og fiser op og ned ad vejen

OUTRO:

 AA
E------10-9----10-9----9-|------10-9----10-9----9-|
B-----------10------10---|-----------10------10---|
G------------------------|------------------------|
D------------------------|------------------------|
A------------------------|------------------------|
E------------------------|------------------------|


 A/dA
E------10-9----10-9----9-|------10-9----10-9----9-|
B-----------10------10---|-----------10------10---|
G------------------------|------------------------|
D------------------------|------------------------|
A------------------------|------------------------|
E------------------------|------------------------|


A/f# A/e A
E------10-9----10-9----9-|------10-9----10-9----9-|
B-----------10------10---|-----------10------10---|
G------------------------|------------------------|
D------------------------|------------------------|
A------------------------|------------------------|
E------------------------|------------------------|


 F#m
Ja vi vil fise p? f?rdselsloven
E A(sidste del af outro)
og bl?se op og ned ad vejen.

_____________________________________________________
Det skulle v?re det hele.
Hvis du er den lykkelige ejer af en synthesizer s? bare sm?k en masse basgange oveni

?2000 Niels Rune Brandt, nielsrune@vip.cybercity.dk


A A7 D E F#m
variations - click chord images
Transpose chords:
Tuning:
Cool service:
View: Size:
A  A  A
Rating:
Layout:
  • Currently 3/5 Stars.
  • 1
  • 2
  • 3
  • 4
  • 5
 
Accuracy:
  • Currently 2/5 Stars.
  • 1
  • 2
  • 3
  • 4
  • 5
 
click stars to rate
Chordie recommends:
Get acoustic guitar lessons and electric guitar lessons at JamPlay.com
Songbook:
Login to add this song to your songbook
Support the artist
Preview/buy this song
MSN Music
Why this non-profit ad?

 
login to add comments/video/corrections