Picture On The Wall

Shy Nobleman

 E

veres:
 EAD
"there's..."

chorus:
 C#MBCDD#
e[--4-----2-----3-----5---6--|
B[--5-----4-----5-----7---8--|
G[--6-----4-----5-----7---8--|
D[--6-----4-----5-----7---8--|
A[--4-----2-----3-----5---6--|
E[---------------------------|

"in the winter..."

bridge:
 C#BABG#
e[--4-----2-----0-----2-----4--|
B[--6-----4-----2-----4-----4--|
G[--6-----4-----2-----4-----5--|
D[--6-----4-----2-----4-----6--|
A[--4-----2-----0-----2-----6--|
E[--------------------------4--|


index:
intro*2
veres*2
chorus*1
veres*2
chorus*1
bridge*2
veres*3

maor blumenthal
ICQ:191809050
















A B C C# C#m D D# E G#
variations - click chord images
Transpose chords:
Tuning:
Cool service:
View: Size:
A  A  A
Rating:
Layout:
  • Currently 2/5 Stars.
  • 1
  • 2
  • 3
  • 4
  • 5
 
Accuracy:
  • Currently 3.8/5 Stars.
  • 1
  • 2
  • 3
  • 4
  • 5
 
click stars to rate
Chordie recommends:
Check out these online guitar lessons
Songbook:
Login to add this song to your songbook
Support the artist
Preview/buy this song
MSN Music
Why this non-profit ad?

 
login to add comments/video/corrections