Galit

Siakol

 AC#mD
 MINSAY NAGSASAWA TAYO DAHIL SA PANG AABUSO
 EA
TIBOK NG PUSO'Y BUMABAGAL NAWAWALAN NG PAGMAMAHAL
 C#mDE
OHOWOO PAGMAMAHAL MMMMMM                     
 AC#mD
 MINSAY NAIINIS NARIN SA BABALANG DAPAT SUNDIN
 EA
NABIBINGI'T NAUUTAL NAWAWALAN NG PAGMAMAHAL
 C#mDE
 OHOWOO PAGMAMAHAL MMMMMM       

CHORUS:

 C#mDC#m
 GALIT ANG SYANG PUMAPALIT SA DAMDAMIN NATING GIPIT
 DE
GALIT ANG SYANG PUMAPALIT SA DAMDAMIN NATING GIPIT
 AC#mD
 MINSAY NAPAPAGOD TAYO TAPUSIN NA ANG BUHAY NATO
 EA
GINAGAWA TAYONG HANGAL NAWAWALAN NG PAGMAMAHAL
 C#mDE
OHOWOO PAGMAMAHAL MMMMMM                    

ADLIB: A C#m D E
 AC#mDE
--------------0------------------0--------|
------2---0-----2--2p0------0-------------|
--------------------------2-1-------------|
------------------------------------------|
------------------------------------------|
------------------------------------------|
------------------------------------------|
-----2-2p0-h2-\(3)-2h-3\5-----------------|
------------------------------------------|
------------------------------------------|
------------------------------------------|
------------------------------------------|
------------------------------------------|
---3-3p2-h3-\5-(3)-2h3p2-0-2--------------|
------------------------------------------|
------------------------------------------|
------------------------------------------|
------------------------------------------|
------0---------------------0-------------|
----0----2-2p0--------0-------------------|
------------------2--1--------------------|
------------------------------------------|
------------------------------------------|
------------------------------------------|
------------------------------------------|
----2-2p0-h2-\-(3)-2h-3\5-----------------|
------------------------------------------|
------------------------------------------|
------------------------------------------|
------------------------------------------|
------------------------------------------|
----3-3p2h3\5-(3)-2h3p2-0-2---------------|
------------------------------------------|
------------------------------------------|
------------------------------------------|
------------------------------------------|


(REPEAT CHORUS)

 AC#mD
 MINSAY NAPIPILITAN OO PAKITANG TAO LANG
 EA
KAYA PILITIN MANG MAGTAGAL WALA NA AKONG PAGMAMAHAL

 AC#mDE
 WALA NAKONG PAGMAMAHAL 8X
HOOOOO AAHHHH

Chords by: Alay ponchica.
any questions & comments?
Email at alay_slash@yahoo.com


A C#m D E
variations - click chord images
Transpose chords:
Tuning:
Cool service:
View: Size:
A  A  A
Rating:
Layout:
  • Currently 3.4/5 Stars.
  • 1
  • 2
  • 3
  • 4
  • 5
 
Accuracy:
  • Currently 3/5 Stars.
  • 1
  • 2
  • 3
  • 4
  • 5
 
click stars to rate
Chordie recommends:
Get acoustic guitar lessons and electric guitar lessons at JamPlay.com
Songbook:
Login to add this song to your songbook
Support the artist
Preview/buy this song
MSN Music
Why this non-profit ad?

 
login to add comments/video/corrections